  0
SECTION
  2
HEADER
  9
$ACADVER
  1
AC1009
  9
$DWGCODEPAGE
  3
ansi_1250
  9
$INSBASE
 10
0.0
 20
0.0
 30
0.0
  9
$EXTMIN
 10
-628.9999999999998
 20
-9.500000000000142
 30
-89.00000000000014
  9
$EXTMAX
 10
628.9999999999998
 20
738.0000000000001
 30
137.0000000000003
  9
$LIMMIN
 10
0.0
 20
0.0
  9
$LIMMAX
 10
420.0
 20
297.0
  9
$ORTHOMODE
 70
     0
  9
$REGENMODE
 70
     1
  9
$FILLMODE
 70
     1
  9
$QTEXTMODE
 70
     0
  9
$MIRRTEXT
 70
     0
  9
$DRAGMODE
 70
     2
  9
$LTSCALE
 40
1.0
  9
$OSMODE
 70
   511
  9
$ATTMODE
 70
     1
  9
$TEXTSIZE
 40
2.5
  9
$TRACEWID
 40
1.0
  9
$TEXTSTYLE
  7
STANDARD
  9
$CLAYER
  8
0
  9
$CELTYPE
  6
BYLAYER
  9
$CECOLOR
 62
   256
  9
$DIMSCALE
 40
1.0
  9
$DIMASZ
 40
2.5
  9
$DIMEXO
 40
0.625
  9
$DIMDLI
 40
3.75
  9
$DIMRND
 40
0.0
  9
$DIMDLE
 40
0.0
  9
$DIMEXE
 40
1.25
  9
$DIMTP
 40
0.0
  9
$DIMTM
 40
0.0
  9
$DIMTXT
 40
2.5
  9
$DIMCEN
 40
-2.5
  9
$DIMTSZ
 40
0.0
  9
$DIMTOL
 70
     0
  9
$DIMLIM
 70
     0
  9
$DIMTIH
 70
     0
  9
$DIMTOH
 70
     0
  9
$DIMSE1
 70
     0
  9
$DIMSE2
 70
     0
  9
$DIMTAD
 70
     1
  9
$DIMZIN
 70
     8
  9
$DIMBLK
  1

  9
$DIMASO
 70
     1
  9
$DIMSHO
 70
     1
  9
$DIMPOST
  1

  9
$DIMAPOST
  1

  9
$DIMALT
 70
     0
  9
$DIMALTD
 70
     3
  9
$DIMALTF
 40
0.03937007874016
  9
$DIMLFAC
 40
1.0
  9
$DIMTOFL
 70
     1
  9
$DIMTVP
 40
0.0
  9
$DIMTIX
 70
     0
  9
$DIMSOXD
 70
     0
  9
$DIMSAH
 70
     0
  9
$DIMBLK1
  1

  9
$DIMBLK2
  1

  9
$DIMSTYLE
  2
ISO-25
  9
$DIMCLRD
 70
     0
  9
$DIMCLRE
 70
     0
  9
$DIMCLRT
 70
     0
  9
$DIMTFAC
 40
1.0
  9
$DIMGAP
 40
0.625
  9
$LUNITS
 70
     2
  9
$LUPREC
 70
     3
  9
$SKETCHINC
 40
1.0
  9
$FILLETRAD
 40
10.0
  9
$AUNITS
 70
     0
  9
$AUPREC
 70
     0
  9
$MENU
  1
.
  9
$ELEVATION
 40
0.0
  9
$PELEVATION
 40
0.0
  9
$THICKNESS
 40
0.0
  9
$LIMCHECK
 70
     0
  9
$CHAMFERA
 40
10.0
  9
$CHAMFERB
 40
10.0
  9
$SKPOLY
 70
     0
  9
$TDCREATE
 40
2455022.720692848
  9
$TDUPDATE
 40
2460543.688999653
  9
$TDINDWG
 40
0.0487645023
  9
$TDUSRTIMER
 40
0.0487645023
  9
$USRTIMER
 70
     1
  9
$ANGBASE
 50
0.0
  9
$ANGDIR
 70
     0
  9
$PDMODE
 70
     0
  9
$PDSIZE
 40
0.0
  9
$PLINEWID
 40
0.0
  9
$COORDS
 70
     1
  9
$SPLFRAME
 70
     0
  9
$SPLINETYPE
 70
     6
  9
$SPLINESEGS
 70
     8
  9
$ATTDIA
 70
     0
  9
$ATTREQ
 70
     1
  9
$HANDLING
 70
     1
  9
$HANDSEED
  5
5F1B
  9
$SURFTAB1
 70
     6
  9
$SURFTAB2
 70
     6
  9
$SURFTYPE
 70
     6
  9
$SURFU
 70
     6
  9
$SURFV
 70
     6
  9
$UCSNAME
  2

  9
$UCSORG
 10
0.0
 20
0.0
 30
0.0
  9
$UCSXDIR
 10
1.0
 20
0.0
 30
0.0
  9
$UCSYDIR
 10
0.0
 20
1.0
 30
0.0
  9
$PUCSNAME
  2

  9
$PUCSORG
 10
0.0
 20
0.0
 30
0.0
  9
$PUCSXDIR
 10
1.0
 20
0.0
 30
0.0
  9
$PUCSYDIR
 10
0.0
 20
1.0
 30
0.0
  9
$USERI1
 70
     0
  9
$USERI2
 70
     0
  9
$USERI3
 70
     0
  9
$USERI4
 70
     0
  9
$USERI5
 70
     0
  9
$USERR1
 40
0.0
  9
$USERR2
 40
0.0
  9
$USERR3
 40
0.0
  9
$USERR4
 40
0.0
  9
$USERR5
 40
0.0
  9
$WORLDVIEW
 70
     1
  9
$SHADEDGE
 70
     3
  9
$SHADEDIF
 70
    70
  9
$TILEMODE
 70
     1
  9
$MAXACTVP
 70
    64
  9
$PLIMCHECK
 70
     0
  9
$PEXTMIN
 10
1.000000000000000E+20
 20
1.000000000000000E+20
 30
1.000000000000000E+20
  9
$PEXTMAX
 10
-1.000000000000000E+20
 20
-1.000000000000000E+20
 30
-1.000000000000000E+20
  9
$PLIMMIN
 10
0.0
 20
0.0
  9
$PLIMMAX
 10
0.0
 20
0.0
  9
$UNITMODE
 70
     0
  9
$VISRETAIN
 70
     1
  9
$PLINEGEN
 70
     0
  9
$PSLTSCALE
 70
     1
  0
ENDSEC
  0
SECTION
  2
TABLES
  0
TABLE
  2
VPORT
 70
     1
  0
VPORT
  2
*ACTIVE
 70
     0
 10
0.0
 20
0.0
 11
1.0
 21
1.0
 12
162.6791668763921
 22
-183.8901008730298
 13
0.0
 23
0.0
 14
10.0
 24
10.0
 15
10.0
 25
10.0
 16
0.5773502691896226
 26
0.5773502691896226
 36
0.5773502691896226
 17
-134.1869158878504
 27
-0.0000000000000426
 37
0.0
 40
730.1806448749517
 41
1.739930955120828
 42
50.0
 43
0.0
 44
0.0
 50
0.0
 51
0.0
 71
    16
 72
  1000
 73
     1
 74
     3
 75
     0
 76
     0
 77
     0
 78
     0
  0
ENDTAB
  0
TABLE
  2
LTYPE
 70
     1
  0
LTYPE
  2
CONTINUOUS
 70
     0
  3
Solid line
 72
    65
 73
     0
 40
0.0
  0
ENDTAB
  0
TABLE
  2
LAYER
 70
     1
  0
LAYER
  2
0
 70
     0
 62
     7
  6
CONTINUOUS
  0
ENDTAB
  0
TABLE
  2
STYLE
 70
     2
  0
STYLE
  2
STANDARD
 70
     0
 40
0.0
 41
1.0
 50
0.0
 71
     0
 42
2.5
  3
arial.ttf
  4

  0
STYLE
  2
ANNOTATIVE
 70
     0
 40
0.0
 41
1.0
 50
0.0
 71
     0
 42
2.5
  3
arial.ttf
  4

  0
ENDTAB
  0
TABLE
  2
VIEW
 70
     0
  0
ENDTAB
  0
TABLE
  2
UCS
 70
     0
  0
ENDTAB
  0
TABLE
  2
APPID
 70
     2
  0
APPID
  2
ACAD
 70
     0
  0
APPID
  2
ACADANNOTATIVE
 70
     0
  0
ENDTAB
  0
TABLE
  2
DIMSTYLE
 70
     2
  0
DIMSTYLE
  2
ISO-25
 70
     0
  3

  4

  5

  6

  7

 40
1.0
 41
2.5
 42
0.625
 43
3.75
 44
1.25
 45
0.0
 46
0.0
 47
0.0
 48
0.0
140
2.5
141
-2.5
142
0.0
143
0.03937007874016
144
1.0
145
0.0
146
1.0
147
0.625
 71
     0
 72
     0
 73
     0
 74
     0
 75
     0
 76
     0
 77
     1
 78
     8
170
     0
171
     3
172
     1
173
     0
174
     0
175
     0
176
     0
177
     0
178
     0
  0
DIMSTYLE
  2
ANNOTATIVE
 70
     0
  3

  4

  5

  6

  7

 40
0.0
 41
2.5
 42
0.625
 43
3.75
 44
1.25
 45
0.0
 46
0.0
 47
0.0
 48
0.0
140
2.5
141
-2.5
142
0.0
143
0.03937007874016
144
1.0
145
0.0
146
1.0
147
0.625
 71
     0
 72
     0
 73
     0
 74
     0
 75
     0
 76
     0
 77
     1
 78
     8
170
     0
171
     3
172
     1
173
     0
174
     0
175
     0
176
     0
177
     0
178
     0
  0
ENDTAB
  0
ENDSEC
  0
SECTION
  2
BLOCKS
  0
BLOCK
  8
0
  2
$MODEL_SPACE
 70
     0
 10
0.0
 20
0.0
 30
0.0
  3
$MODEL_SPACE
  1

  0
ENDBLK
  5
21
  8
0
  0
BLOCK
 67
     1
  8
0
  2
$PAPER_SPACE
 70
     0
 10
0.0
 20
0.0
 30
0.0
  3
$PAPER_SPACE
  1

  0
ENDBLK
  5
1D
 67
     1
  8
0
  0
BLOCK
  8
0
  2
*X1
 70
     1
 10
0.0
 20
0.0
 30
0.0
  3
*X1
  1

  0
POLYLINE
  5
52AF
  8
0
 66
     1
 10
0.0
 20
0.0
 30
0.0
 70
    64
 71
     4
 72
     2
  0
VERTEX
  5
52B0
  8
0
 10
-586.0
 20
0.0
 30
-61.99999999999993
 70
   192
  0
VERTEX
  5
52B1
  8
0
 10
-586.0
 20
0.0
 30
62.00000000000007
 70
   192
  0
VERTEX
  5
52B2
  8
0
 10
-585.9999999999999
 20
18.0
 30
62.00000000000007
 70
   192
  0
VERTEX
  5
52B3
  8
0
 10
-586.0
 20
18.0
 30
-61.99999999999993
 70
   192
  0
VERTEX
  5
52B4
  8
0
 10
0.0
 20
0.0
 30
0.0
 70
   128
 71
     3
 72
     4
 73
    -1
  0
VERTEX
  5
52B5
  8
0
 10
0.0
 20
0.0
 30
0.0
 70
   128
 71
     2
 72
    -3
 73
     1
  0
SEQEND
  5
5DB2
  8
0
  0
POLYLINE
  5
52B6
  8
0
 66
     1
 10
0.0
 20
0.0
 30
0.0
 70
    64
 71
     4
 72
     2
  0
VERTEX
  5
52B7
  8
0
 10
-585.9999999999999
 20
0.0
 30
62.00000000000007
 70
   192
  0
VERTEX
  5
52B8
  8
0
 10
585.9999999999999
 20
0.0
 30
61.99999999999993
 70
   192
  0
VERTEX
  5
52B9
  8
0
 10
585.9999999999999
 20
18.0
 30
61.99999999999993
 70
   192
  0
VERTEX
  5
52BA
  8
0
 10
-585.9999999999999
 20
18.0
 30
62.00000000000007
 70
   192
  0
VERTEX
  5
52BB
  8
0
 10
0.0
 20
0.0
 30
0.0
 70
   128
 71
     3
 72
     4
 73
    -1
  0
VERTEX
  5
52BC
  8
0
 10
0.0
 20
0.0
 30
0.0
 70
   128
 71
     2
 72
    -3
 73
     1
  0
SEQEND
  5
5DB3
  8
0
  0
POLYLINE
  5
52BD
  8
0
 66
     1
 10
0.0
 20
0.0
 30
0.0
 70
    64
 71
     4
 72
     2
  0
VERTEX
  5
52BE
  8
0
 10
585.9999999999999
 20
0.0
 30
61.99999999999993
 70
   192
  0
VERTEX
  5
52BF
  8
0
 10
586.0
 20
18.0
 30
61.99999999999993
 70
   192
  0
VERTEX
  5
52C0
  8
0
 10
586.0000000000001
 20
18.0
 30
-61.99999999999972
 70
   192
  0
VERTEX
  5
52C1
  8
0
 10
586.0
 20
0.0
 30
-61.99999999999972
 70
   192
  0
VERTEX
  5
52C2
  8
0
 10
0.0
 20
0.0
 30
0.0
 70
   128
 71
     1
 72
     4
 73
    -3
  0
VERTEX
  5
52C3
  8
0
 10
0.0
 20
0.0
 30
0.0
 70
   128
 71
    -1
 72
     3
 73
     2
  0
SEQEND
  5
5DB4
  8
0
  0
POLYLINE
  5
52C4
  8
0
 66
     1
 10
0.0
 20
0.0
 30
0.0
 70
    64
 71
     4
 72
     2
  0
VERTEX
  5
52C5
  8
0
 10
586.0000000000001
 20
0.0
 30
-61.99999999999972
 70
   192
  0
VERTEX
  5
52C6
  8
0
 10
586.0000000000001
 20
18.0
 30
-61.99999999999972
 70
   192
  0
VERTEX
  5
52C7
  8
0
 10
-586.0
 20
18.0
 30
-61.99999999999994
 70
   192
  0
VERTEX
  5
52C8
  8
0
 10
-586.0
 20
0.0
 30
-61.99999999999994
 70
   192
  0
VERTEX
  5
52C9
  8
0
 10
0.0
 20
0.0
 30
0.0
 70
   128
 71
     1
 72
     4
 73
    -3
  0
VERTEX
  5
52CA
  8
0
 10
0.0
 20
0.0
 30
0.0
 70
   128
 71
    -1
 72
     3
 73
     2
  0
SEQEND
  5
5DB5
  8
0
  0
POLYLINE
  5
52CB
  8
0
 66
     1
 10
0.0
 20
0.0
 30
0.0
 70
    64
 71
     4
 72
     2
  0
VERTEX
  5
52CC
  8
0
 10
-586.0
 20
18.0
 30
-61.99999999999993
 70
   192
  0
VERTEX
  5
52CD
  8
0
 10
-586.0
 20
18.0
 30
62.00000000000007
 70
   192
  0
VERTEX
  5
52CE
  8
0
 10
585.9999999999999
 20
18.0
 30
61.99999999999993
 70
   192
  0
VERTEX
  5
52CF
  8
0
 10
586.0
 20
18.0
 30
-61.99999999999972
 70
   192
  0
VERTEX
  5
52D0
  8
0
 10
0.0
 20
0.0
 30
0.0
 70
   128
 71
     3
 72
     4
 73
    -1
  0
VERTEX
  5
52D1
  8
0
 10
0.0
 20
0.0
 30
0.0
 70
   128
 71
     2
 72
    -3
 73
     1
  0
SEQEND
  5
5DB6
  8
0
  0
POLYLINE
  5
52D2
  8
0
 66
     1
 10
0.0
 20
0.0
 30
0.0
 70
    64
 71
     4
 72
     2
  0
VERTEX
  5
52D3
  8
0
 10
-585.9999999999999
 20
0.0
 30
62.00000000000007
 70
   192
  0
VERTEX
  5
52D4
  8
0
 10
586.0
 20
0.0
 30
61.99999999999993
 70
   192
  0
VERTEX
  5
52D5
  8
0
 10
586.0000000000001
 20
0.0
 30
-61.99999999999972
 70
   192
  0
VERTEX
  5
52D6
  8
0
 10
-586.0
 20
0.0
 30
-61.99999999999993
 70
   192
  0
VERTEX
  5
52D7
  8
0
 10
0.0
 20
0.0
 30
0.0
 70
   128
 71
     1
 72
     4
 73
    -3
  0
VERTEX
  5
52D8
  8
0
 10
0.0
 20
0.0
 30
0.0
 70
   128
 71
    -1
 72
     3
 73
     2
  0
SEQEND
  5
5DB7
  8
0
  0
ENDBLK
  5
5DB1
  8
0
  0
BLOCK
  8
0
  2
*X2
 70
     1
 10
0.0
 20
0.0
 30
0.0
  3
*X2
  1

  0
POLYLINE
  5
52DA
  8
0
 66
     1
 10
0.0
 20
0.0
 30
0.0
 70
    64
 71
     4
 72
     2
  0
VERTEX
  5
52DB
  8
0
 10
-603.9999999999999
 20
-0.5
 30
-88.99999999999993
 70
   192
  0
VERTEX
  5
52DC
  8
0
 10
-603.9999999999999
 20
-0.5
 30
62.00000000000007
 70
   192
  0
VERTEX
  5
52DD
  8
0
 10
-603.9999999999999
 20
700.5
 30
62.00000000000006
 70
   192
  0
VERTEX
  5
52DE
  8
0
 10
-603.9999999999999
 20
700.5
 30
-88.99999999999993
 70
   192
  0
VERTEX
  5
52DF
  8
0
 10
0.0
 20
0.0
 30
0.0
 70
   128
 71
     3
 72
     4
 73
    -1
  0
VERTEX
  5
52E0
  8
0
 10
0.0
 20
0.0
 30
0.0
 70
   128
 71
     2
 72
    -3
 73
     1
  0
SEQEND
  5
5DBA
  8
0
  0
POLYLINE
  5
52E1
  8
0
 66
     1
 10
0.0
 20
0.0
 30
0.0
 70
    64
 71
     4
 72
     2
  0
VERTEX
  5
52E2
  8
0
 10
-603.9999999999999
 20
-0.5
 30
62.00000000000006
 70
   192
  0
VERTEX
  5
52E3
  8
0
 10
-585.9999999999999
 20
-0.5
 30
62.00000000000007
 70
   192
  0
VERTEX
  5
52E4
  8
0
 10
-585.9999999999999
 20
700.5
 30
62.00000000000007
 70
   192
  0
VERTEX
  5
52E5
  8
0
 10
-603.9999999999999
 20
700.5
 30
62.00000000000006
 70
   192
  0
VERTEX
  5
52E6
  8
0
 10
0.0
 20
0.0
 30
0.0
 70
   128
 71
     3
 72
     4
 73
    -1
  0
VERTEX
  5
52E7
  8
0
 10
0.0
 20
0.0
 30
0.0
 70
   128
 71
     2
 72
    -3
 73
     1
  0
SEQEND
  5
5DBB
  8
0
  0
POLYLINE
  5
52E8
  8
0
 66
     1
 10
0.0
 20
0.0
 30
0.0
 70
    64
 71
     4
 72
     2
  0
VERTEX
  5
52E9
  8
0
 10
-585.9999999999999
 20
-0.5
 30
62.00000000000007
 70
   192
  0
VERTEX
  5
52EA
  8
0
 10
-586.0
 20
700.5
 30
62.00000000000007
 70
   192
  0
VERTEX
  5
52EB
  8
0
 10
-586.0
 20
700.5
 30
-88.99999999999993
 70
   192
  0
VERTEX
  5
52EC
  8
0
 10
-586.0000000000001
 20
-0.5
 30
-88.99999999999993
 70
   192
  0
VERTEX
  5
52ED
  8
0
 10
0.0
 20
0.0
 30
0.0
 70
   128
 71
     1
 72
     4
 73
    -3
  0
VERTEX
  5
52EE
  8
0
 10
0.0
 20
0.0
 30
0.0
 70
   128
 71
    -1
 72
     3
 73
     2
  0
SEQEND
  5
5DBC
  8
0
  0
POLYLINE
  5
52EF
  8
0
 66
     1
 10
0.0
 20
0.0
 30
0.0
 70
    64
 71
     4
 72
     2
  0
VERTEX
  5
52F0
  8
0
 10
-586.0
 20
-0.5
 30
-88.99999999999993
 70
   192
  0
VERTEX
  5
52F1
  8
0
 10
-586.0
 20
700.5
 30
-88.99999999999993
 70
   192
  0
VERTEX
  5
52F2
  8
0
 10
-603.9999999999999
 20
700.5
 30
-88.99999999999993
 70
   192
  0
VERTEX
  5
52F3
  8
0
 10
-603.9999999999999
 20
-0.5
 30
-88.99999999999993
 70
   192
  0
VERTEX
  5
52F4
  8
0
 10
0.0
 20
0.0
 30
0.0
 70
   128
 71
     1
 72
     4
 73
    -3
  0
VERTEX
  5
52F5
  8
0
 10
0.0
 20
0.0
 30
0.0
 70
   128
 71
    -1
 72
     3
 73
     2
  0
SEQEND
  5
5DBD
  8
0
  0
POLYLINE
  5
52F6
  8
0
 66
     1
 10
0.0
 20
0.0
 30
0.0
 70
    64
 71
     4
 72
     2
  0
VERTEX
  5
52F7
  8
0
 10
-603.9999999999999
 20
700.5
 30
-88.99999999999993
 70
   192
  0
VERTEX
  5
52F8
  8
0
 10
-603.9999999999999
 20
700.5
 30
62.00000000000007
 70
   192
  0
VERTEX
  5
52F9
  8
0
 10
-585.9999999999999
 20
700.5
 30
62.00000000000007
 70
   192
  0
VERTEX
  5
52FA
  8
0
 10
-586.0000000000001
 20
700.5
 30
-88.99999999999993
 70
   192
  0
VERTEX
  5
52FB
  8
0
 10
0.0
 20
0.0
 30
0.0
 70
   128
 71
     3
 72
     4
 73
    -1
  0
VERTEX
  5
52FC
  8
0
 10
0.0
 20
0.0
 30
0.0
 70
   128
 71
     2
 72
    -3
 73
     1
  0
SEQEND
  5
5DBE
  8
0
  0
POLYLINE
  5
52FD
  8
0
 66
     1
 10
0.0
 20
0.0
 30
0.0
 70
    64
 71
     4
 72
     2
  0
VERTEX
  5
52FE
  8
0
 10
-603.9999999999999
 20
-0.5
 30
62.00000000000006
 70
   192
  0
VERTEX
  5
52FF
  8
0
 10
-586.0
 20
-0.5
 30
62.00000000000007
 70
   192
  0
VERTEX
  5
5300
  8
0
 10
-586.0
 20
-0.5
 30
-88.99999999999993
 70
   192
  0
VERTEX
  5
5301
  8
0
 10
-603.9999999999999
 20
-0.5
 30
-88.99999999999993
 70
   192
  0
VERTEX
  5
5302
  8
0
 10
0.0
 20
0.0
 30
0.0
 70
   128
 71
     1
 72
     4
 73
    -3
  0
VERTEX
  5
5303
  8
0
 10
0.0
 20
0.0
 30
0.0
 70
   128
 71
    -1
 72
     3
 73
     2
  0
SEQEND
  5
5DBF
  8
0
  0
ENDBLK
  5
5DB9
  8
0
  0
BLOCK
  8
0
  2
*X3
 70
     1
 10
0.0
 20
0.0
 30
0.0
  3
*X3
  1

  0
POLYLINE
  5
5305
  8
0
 66
     1
 10
0.0
 20
0.0
 30
0.0
 70
    64
 71
     4
 72
     2
  0
VERTEX
  5
5306
  8
0
 10
586.0000000000001
 20
-0.5
 30
-89.00000000000007
 70
   192
  0
VERTEX
  5
5307
  8
0
 10
586.0
 20
-0.5
 30
61.99999999999993
 70
   192
  0
VERTEX
  5
5308
  8
0
 10
585.9999999999999
 20
700.5
 30
61.99999999999993
 70
   192
  0
VERTEX
  5
5309
  8
0
 10
586.0000000000001
 20
700.5
 30
-89.00000000000007
 70
   192
  0
VERTEX
  5
530A
  8
0
 10
0.0
 20
0.0
 30
0.0
 70
   128
 71
     3
 72
     4
 73
    -1
  0
VERTEX
  5
530B
  8
0
 10
0.0
 20
0.0
 30
0.0
 70
   128
 71
     2
 72
    -3
 73
     1
  0
SEQEND
  5
5DC2
  8
0
  0
POLYLINE
  5
530C
  8
0
 66
     1
 10
0.0
 20
0.0
 30
0.0
 70
    64
 71
     4
 72
     2
  0
VERTEX
  5
530D
  8
0
 10
585.9999999999999
 20
-0.5
 30
61.99999999999993
 70
   192
  0
VERTEX
  5
530E
  8
0
 10
585.9999999999999
 20
700.5
 30
61.99999999999992
 70
   192
  0
VERTEX
  5
530F
  8
0
 10
603.9999999999999
 20
700.5
 30
61.99999999999991
 70
   192
  0
VERTEX
  5
5310
  8
0
 10
603.9999999999999
 20
-0.5
 30
61.99999999999991
 70
   192
  0
VERTEX
  5
5311
  8
0
 10
0.0
 20
0.0
 30
0.0
 70
   128
 71
     1
 72
     4
 73
    -3
  0
VERTEX
  5
5312
  8
0
 10
0.0
 20
0.0
 30
0.0
 70
   128
 71
    -1
 72
     3
 73
     2
  0
SEQEND
  5
5DC3
  8
0
  0
POLYLINE
  5
5313
  8
0
 66
     1
 10
0.0
 20
0.0
 30
0.0
 70
    64
 71
     4
 72
     2
  0
VERTEX
  5
5314
  8
0
 10
603.9999999999999
 20
-0.5
 30
61.99999999999991
 70
   192
  0
VERTEX
  5
5315
  8
0
 10
603.9999999999999
 20
-0.5
 30
-89.0000000000001
 70
   192
  0
VERTEX
  5
5316
  8
0
 10
603.9999999999999
 20
700.5
 30
-89.00000000000009
 70
   192
  0
VERTEX
  5
5317
  8
0
 10
603.9999999999999
 20
700.5
 30
61.99999999999991
 70
   192
  0
VERTEX
  5
5318
  8
0
 10
0.0
 20
0.0
 30
0.0
 70
   128
 71
     3
 72
     4
 73
    -1
  0
VERTEX
  5
5319
  8
0
 10
0.0
 20
0.0
 30
0.0
 70
   128
 71
     2
 72
    -3
 73
     1
  0
SEQEND
  5
5DC4
  8
0
  0
POLYLINE
  5
531A
  8
0
 66
     1
 10
0.0
 20
0.0
 30
0.0
 70
    64
 71
     4
 72
     2
  0
VERTEX
  5
531B
  8
0
 10
603.9999999999999
 20
-0.5
 30
-89.00000000000007
 70
   192
  0
VERTEX
  5
531C
  8
0
 10
586.0
 20
-0.5
 30
-89.00000000000006
 70
   192
  0
VERTEX
  5
531D
  8
0
 10
586.0
 20
700.5
 30
-89.00000000000007
 70
   192
  0
VERTEX
  5
531E
  8
0
 10
603.9999999999999
 20
700.5
 30
-89.00000000000007
 70
   192
  0
VERTEX
  5
531F
  8
0
 10
0.0
 20
0.0
 30
0.0
 70
   128
 71
     3
 72
     4
 73
    -1
  0
VERTEX
  5
5320
  8
0
 10
0.0
 20
0.0
 30
0.0
 70
   128
 71
     2
 72
    -3
 73
     1
  0
SEQEND
  5
5DC5
  8
0
  0
POLYLINE
  5
5321
  8
0
 66
     1
 10
0.0
 20
0.0
 30
0.0
 70
    64
 71
     4
 72
     2
  0
VERTEX
  5
5322
  8
0
 10
586.0000000000001
 20
700.5
 30
-89.00000000000007
 70
   192
  0
VERTEX
  5
5323
  8
0
 10
586.0
 20
700.5
 30
61.99999999999993
 70
   192
  0
VERTEX
  5
5324
  8
0
 10
603.9999999999999
 20
700.5
 30
61.99999999999991
 70
   192
  0
VERTEX
  5
5325
  8
0
 10
603.9999999999999
 20
700.5
 30
-89.0000000000001
 70
   192
  0
VERTEX
  5
5326
  8
0
 10
0.0
 20
0.0
 30
0.0
 70
   128
 71
     3
 72
     4
 73
    -1
  0
VERTEX
  5
5327
  8
0
 10
0.0
 20
0.0
 30
0.0
 70
   128
 71
     2
 72
    -3
 73
     1
  0
SEQEND
  5
5DC6
  8
0
  0
POLYLINE
  5
5328
  8
0
 66
     1
 10
0.0
 20
0.0
 30
0.0
 70
    64
 71
     4
 72
     2
  0
VERTEX
  5
5329
  8
0
 10
585.9999999999999
 20
-0.5
 30
61.99999999999992
 70
   192
  0
VERTEX
  5
532A
  8
0
 10
603.9999999999999
 20
-0.5
 30
61.99999999999991
 70
   192
  0
VERTEX
  5
532B
  8
0
 10
603.9999999999999
 20
-0.5
 30
-89.00000000000007
 70
   192
  0
VERTEX
  5
532C
  8
0
 10
586.0000000000001
 20
-0.5
 30
-89.00000000000007
 70
   192
  0
VERTEX
  5
532D
  8
0
 10
0.0
 20
0.0
 30
0.0
 70
   128
 71
     1
 72
     4
 73
    -3
  0
VERTEX
  5
532E
  8
0
 10
0.0
 20
0.0
 30
0.0
 70
   128
 71
    -1
 72
     3
 73
     2
  0
SEQEND
  5
5DC7
  8
0
  0
ENDBLK
  5
5DC1
  8
0
  0
BLOCK
  8
0
  2
*X4
 70
     1
 10
0.0
 20
0.0
 30
0.0
  3
*X4
  1

  0
POLYLINE
  5
5330
  8
0
 66
     1
 10
0.0
 20
0.0
 30
0.0
 70
    64
 71
     4
 72
     2
  0
VERTEX
  5
5331
  8
0
 10
-603.9999999999999
 20
-0.5
 30
-88.99999999999993
 70
   192
  0
VERTEX
  5
5332
  8
0
 10
-603.9999999999999
 20
700.5
 30
-88.99999999999991
 70
   192
  0
VERTEX
  5
5333
  8
0
 10
-628.9999999999998
 20
700.5
 30
-88.99999999999991
 70
   192
  0
VERTEX
  5
5334
  8
0
 10
-628.9999999999998
 20
-0.5
 30
-88.9999999999999
 70
   192
  0
VERTEX
  5
5335
  8
0
 10
0.0
 20
0.0
 30
0.0
 70
   128
 71
     1
 72
     4
 73
    -3
  0
VERTEX
  5
5336
  8
0
 10
0.0
 20
0.0
 30
0.0
 70
   128
 71
    -1
 72
     3
 73
     2
  0
SEQEND
  5
5DCA
  8
0
  0
POLYLINE
  5
5337
  8
0
 66
     1
 10
0.0
 20
0.0
 30
0.0
 70
    64
 71
     4
 72
     2
  0
VERTEX
  5
5338
  8
0
 10
-628.9999999999998
 20
-0.5
 30
-88.99999999999991
 70
   192
  0
VERTEX
  5
5339
  8
0
 10
-628.9999999999998
 20
700.5
 30
-88.99999999999991
 70
   192
  0
VERTEX
  5
533A
  8
0
 10
-628.9999999999998
 20
700.5
 30
57.00000000000016
 70
   192
  0
VERTEX
  5
533B
  8
0
 10
-628.9999999999998
 20
-0.5
 30
57.00000000000016
 70
   192
  0
VERTEX
  5
533C
  8
0
 10
0.0
 20
0.0
 30
0.0
 70
   128
 71
     1
 72
     4
 73
    -3
  0
VERTEX
  5
533D
  8
0
 10
0.0
 20
0.0
 30
0.0
 70
   128
 71
    -1
 72
     3
 73
     2
  0
SEQEND
  5
5DCB
  8
0
  0
POLYLINE
  5
533E
  8
0
 66
     1
 10
0.0
 20
0.0
 30
0.0
 70
    64
 71
     8
 72
     6
  0
VERTEX
  5
533F
  8
0
 10
-616.4999999999999
 20
-0.5
 30
78.65063509461105
 70
   192
  0
VERTEX
  5
5340
  8
0
 10
-616.4999999999999
 20
700.5
 30
78.65063509461105
 70
   192
  0
VERTEX
  5
5341
  8
0
 10
-625.6506350946107
 20
700.5
 30
69.50000000000011
 70
   192
  0
VERTEX
  5
5342
  8
0
 10
-625.6506350946107
 20
-0.5
 30
69.50000000000011
 70
   192
  0
VERTEX
  5
5343
  8
0
 10
-603.9999999999999
 20
-0.5
 30
82.00000000000007
 70
   192
  0
VERTEX
  5
5344
  8
0
 10
-603.9999999999999
 20
700.5
 30
82.00000000000006
 70
   192
  0
VERTEX
  5
5345
  8
0
 10
-628.9999999999998
 20
700.5
 30
57.00000000000016
 70
   192
  0
VERTEX
  5
5346
  8
0
 10
-628.9999999999998
 20
-0.5
 30
57.00000000000016
 70
   192
  0
VERTEX
  5
5347
  8
0
 10
0.0
 20
0.0
 30
0.0
 70
   128
 71
     1
 72
     2
 73
    -3
  0
VERTEX
  5
5348
  8
0
 10
0.0
 20
0.0
 30
0.0
 70
   128
 71
    -1
 72
     3
 73
     4
  0
VERTEX
  5
5349
  8
0
 10
0.0
 20
0.0
 30
0.0
 70
   128
 71
     5
 72
     6
 73
    -2
  0
VERTEX
  5
534A
  8
0
 10
0.0
 20
0.0
 30
0.0
 70
   128
 71
    -5
 72
     2
 73
     1
  0
VERTEX
  5
534B
  8
0
 10
0.0
 20
0.0
 30
0.0
 70
   128
 71
     4
 72
     3
 73
    -7
  0
VERTEX
  5
534C
  8
0
 10
0.0
 20
0.0
 30
0.0
 70
   128
 71
    -4
 72
     7
 73
     8
  0
SEQEND
  5
5DCC
  8
0
  0
POLYLINE
  5
534D
  8
0
 66
     1
 10
0.0
 20
0.0
 30
0.0
 70
    64
 71
     4
 72
     2
  0
VERTEX
  5
534E
  8
0
 10
-603.9999999999999
 20
-0.5
 30
82.00000000000006
 70
   192
  0
VERTEX
  5
534F
  8
0
 10
-603.9999999999999
 20
-0.5
 30
-88.99999999999993
 70
   192
  0
VERTEX
  5
5350
  8
0
 10
-603.9999999999999
 20
700.5
 30
-88.99999999999993
 70
   192
  0
VERTEX
  5
5351
  8
0
 10
-603.9999999999999
 20
700.5
 30
82.00000000000006
 70
   192
  0
VERTEX
  5
5352
  8
0
 10
0.0
 20
0.0
 30
0.0
 70
   128
 71
     3
 72
     4
 73
    -1
  0
VERTEX
  5
5353
  8
0
 10
0.0
 20
0.0
 30
0.0
 70
   128
 71
     2
 72
    -3
 73
     1
  0
SEQEND
  5
5DCD
  8
0
  0
POLYLINE
  5
5354
  8
0
 66
     1
 10
0.0
 20
0.0
 30
0.0
 70
    64
 71
     6
 72
     4
  0
VERTEX
  5
5355
  8
0
 10
-603.9999999999999
 20
700.5
 30
-88.99999999999991
 70
   192
  0
VERTEX
  5
5356
  8
0
 10
-628.9999999999998
 20
700.5
 30
-88.9999999999999
 70
   192
  0
VERTEX
  5
5357
  8
0
 10
-628.9999999999998
 20
700.5
 30
57.00000000000016
 70
   192
  0
VERTEX
  5
5358
  8
0
 10
-625.6506350946107
 20
700.5
 30
69.50000000000011
 70
   192
  0
VERTEX
  5
5359
  8
0
 10
-616.4999999999999
 20
700.5
 30
78.65063509461105
 70
   192
  0
VERTEX
  5
535A
  8
0
 10
-603.9999999999999
 20
700.5
 30
82.00000000000007
 70
   192
  0
VERTEX
  5
535B
  8
0
 10
0.0
 20
0.0
 30
0.0
 70
   128
 71
     5
 72
     6
 73
    -1
  0
VERTEX
  5
535C
  8
0
 10
0.0
 20
0.0
 30
0.0
 70
   128
 71
     4
 72
    -5
 73
    -1
  0
VERTEX
  5
535D
  8
0
 10
0.0
 20
0.0
 30
0.0
 70
   128
 71
     3
 72
    -4
 73
    -1
  0
VERTEX
  5
535E
  8
0
 10
0.0
 20
0.0
 30
0.0
 70
   128
 71
     2
 72
    -3
 73
     1
  0
SEQEND
  5
5DCE
  8
0
  0
POLYLINE
  5
535F
  8
0
 66
     1
 10
0.0
 20
0.0
 30
0.0
 70
    64
 71
     6
 72
     4
  0
VERTEX
  5
5360
  8
0
 10
-628.9999999999998
 20
-0.5
 30
-88.99999999999991
 70
   192
  0
VERTEX
  5
5361
  8
0
 10
-628.9999999999998
 20
-0.5
 30
57.00000000000016
 70
   192
  0
VERTEX
  5
5362
  8
0
 10
-625.6506350946107
 20
-0.5
 30
69.50000000000011
 70
   192
  0
VERTEX
  5
5363
  8
0
 10
-616.4999999999999
 20
-0.5
 30
78.65063509461105
 70
   192
  0
VERTEX
  5
5364
  8
0
 10
-603.9999999999999
 20
-0.5
 30
82.00000000000006
 70
   192
  0
VERTEX
  5
5365
  8
0
 10
-603.9999999999999
 20
-0.5
 30
-88.99999999999991
 70
   192
  0
VERTEX
  5
5366
  8
0
 10
0.0
 20
0.0
 30
0.0
 70
   128
 71
     1
 72
     6
 73
    -5
  0
VERTEX
  5
5367
  8
0
 10
0.0
 20
0.0
 30
0.0
 70
   128
 71
    -1
 72
     5
 73
    -4
  0
VERTEX
  5
5368
  8
0
 10
0.0
 20
0.0
 30
0.0
 70
   128
 71
    -1
 72
     4
 73
    -3
  0
VERTEX
  5
5369
  8
0
 10
0.0
 20
0.0
 30
0.0
 70
   128
 71
    -1
 72
     3
 73
     2
  0
SEQEND
  5
5DCF
  8
0
  0
ENDBLK
  5
5DC9
  8
0
  0
BLOCK
  8
0
  2
*X5
 70
     1
 10
0.0
 20
0.0
 30
0.0
  3
*X5
  1

  0
POLYLINE
  5
536B
  8
0
 66
     1
 10
0.0
 20
0.0
 30
0.0
 70
    64
 71
     4
 72
     2
  0
VERTEX
  5
536C
  8
0
 10
628.9999999999998
 20
-0.5
 30
-89.00000000000006
 70
   192
  0
VERTEX
  5
536D
  8
0
 10
603.9999999999999
 20
-0.5
 30
-89.00000000000007
 70
   192
  0
VERTEX
  5
536E
  8
0
 10
603.9999999999999
 20
700.5
 30
-89.00000000000009
 70
   192
  0
VERTEX
  5
536F
  8
0
 10
628.9999999999998
 20
700.5
 30
-89.00000000000006
 70
   192
  0
VERTEX
  5
5370
  8
0
 10
0.0
 20
0.0
 30
0.0
 70
   128
 71
     3
 72
     4
 73
    -1
  0
VERTEX
  5
5371
  8
0
 10
0.0
 20
0.0
 30
0.0
 70
   128
 71
     2
 72
    -3
 73
     1
  0
SEQEND
  5
5DD2
  8
0
  0
POLYLINE
  5
5372
  8
0
 66
     1
 10
0.0
 20
0.0
 30
0.0
 70
    64
 71
     4
 72
     2
  0
VERTEX
  5
5373
  8
0
 10
603.9999999999999
 20
-0.5
 30
-89.00000000000009
 70
   192
  0
VERTEX
  5
5374
  8
0
 10
603.9999999999999
 20
700.5
 30
-89.0000000000001
 70
   192
  0
VERTEX
  5
5375
  8
0
 10
603.9999999999999
 20
700.5
 30
81.9999999999999
 70
   192
  0
VERTEX
  5
5376
  8
0
 10
603.9999999999999
 20
-0.5
 30
81.99999999999989
 70
   192
  0
VERTEX
  5
5377
  8
0
 10
0.0
 20
0.0
 30
0.0
 70
   128
 71
     1
 72
     4
 73
    -3
  0
VERTEX
  5
5378
  8
0
 10
0.0
 20
0.0
 30
0.0
 70
   128
 71
    -1
 72
     3
 73
     2
  0
SEQEND
  5
5DD3
  8
0
  0
POLYLINE
  5
5379
  8
0
 66
     1
 10
0.0
 20
0.0
 30
0.0
 70
    64
 71
     8
 72
     6
  0
VERTEX
  5
537A
  8
0
 10
625.6506350946107
 20
-0.5
 30
69.49999999999996
 70
   192
  0
VERTEX
  5
537B
  8
0
 10
625.6506350946107
 20
700.5
 30
69.49999999999996
 70
   192
  0
VERTEX
  5
537C
  8
0
 10
616.4999999999999
 20
700.5
 30
78.65063509461089
 70
   192
  0
VERTEX
  5
537D
  8
0
 10
616.4999999999999
 20
-0.5
 30
78.65063509461089
 70
   192
  0
VERTEX
  5
537E
  8
0
 10
628.9999999999998
 20
-0.5
 30
57.00000000000001
 70
   192
  0
VERTEX
  5
537F
  8
0
 10
628.9999999999998
 20
700.5
 30
57.00000000000001
 70
   192
  0
VERTEX
  5
5380
  8
0
 10
603.9999999999999
 20
700.5
 30
81.99999999999991
 70
   192
  0
VERTEX
  5
5381
  8
0
 10
603.9999999999999
 20
-0.5
 30
81.9999999999999
 70
   192
  0
VERTEX
  5
5382
  8
0
 10
0.0
 20
0.0
 30
0.0
 70
   128
 71
     1
 72
     2
 73
    -3
  0
VERTEX
  5
5383
  8
0
 10
0.0
 20
0.0
 30
0.0
 70
   128
 71
    -1
 72
     3
 73
     4
  0
VERTEX
  5
5384
  8
0
 10
0.0
 20
0.0
 30
0.0
 70
   128
 71
     5
 72
     6
 73
    -2
  0
VERTEX
  5
5385
  8
0
 10
0.0
 20
0.0
 30
0.0
 70
   128
 71
    -5
 72
     2
 73
     1
  0
VERTEX
  5
5386
  8
0
 10
0.0
 20
0.0
 30
0.0
 70
   128
 71
     4
 72
     3
 73
    -7
  0
VERTEX
  5
5387
  8
0
 10
0.0
 20
0.0
 30
0.0
 70
   128
 71
    -4
 72
     7
 73
     8
  0
SEQEND
  5
5DD4
  8
0
  0
POLYLINE
  5
5388
  8
0
 66
     1
 10
0.0
 20
0.0
 30
0.0
 70
    64
 71
     4
 72
     2
  0
VERTEX
  5
5389
  8
0
 10
628.9999999999998
 20
-0.5
 30
57.00000000000001
 70
   192
  0
VERTEX
  5
538A
  8
0
 10
628.9999999999998
 20
-0.5
 30
-89.00000000000009
 70
   192
  0
VERTEX
  5
538B
  8
0
 10
628.9999999999998
 20
700.5
 30
-89.00000000000007
 70
   192
  0
VERTEX
  5
538C
  8
0
 10
628.9999999999998
 20
700.5
 30
57.00000000000001
 70
   192
  0
VERTEX
  5
538D
  8
0
 10
0.0
 20
0.0
 30
0.0
 70
   128
 71
     3
 72
     4
 73
    -1
  0
VERTEX
  5
538E
  8
0
 10
0.0
 20
0.0
 30
0.0
 70
   128
 71
     2
 72
    -3
 73
     1
  0
SEQEND
  5
5DD5
  8
0
  0
POLYLINE
  5
538F
  8
0
 66
     1
 10
0.0
 20
0.0
 30
0.0
 70
    64
 71
     6
 72
     4
  0
VERTEX
  5
5390
  8
0
 10
628.9999999999998
 20
700.5
 30
-89.00000000000006
 70
   192
  0
VERTEX
  5
5391
  8
0
 10
603.9999999999999
 20
700.5
 30
-89.00000000000007
 70
   192
  0
VERTEX
  5
5392
  8
0
 10
603.9999999999999
 20
700.5
 30
81.99999999999989
 70
   192
  0
VERTEX
  5
5393
  8
0
 10
616.4999999999999
 20
700.5
 30
78.65063509461089
 70
   192
  0
VERTEX
  5
5394
  8
0
 10
625.6506350946107
 20
700.5
 30
69.49999999999996
 70
   192
  0
VERTEX
  5
5395
  8
0
 10
628.9999999999998
 20
700.5
 30
57.00000000000001
 70
   192
  0
VERTEX
  5
5396
  8
0
 10
0.0
 20
0.0
 30
0.0
 70
   128
 71
     5
 72
     6
 73
    -1
  0
VERTEX
  5
5397
  8
0
 10
0.0
 20
0.0
 30
0.0
 70
   128
 71
     4
 72
    -5
 73
    -1
  0
VERTEX
  5
5398
  8
0
 10
0.0
 20
0.0
 30
0.0
 70
   128
 71
     3
 72
    -4
 73
    -1
  0
VERTEX
  5
5399
  8
0
 10
0.0
 20
0.0
 30
0.0
 70
   128
 71
     2
 72
    -3
 73
     1
  0
SEQEND
  5
5DD6
  8
0
  0
POLYLINE
  5
539A
  8
0
 66
     1
 10
0.0
 20
0.0
 30
0.0
 70
    64
 71
     6
 72
     4
  0
VERTEX
  5
539B
  8
0
 10
603.9999999999999
 20
-0.5
 30
-89.0000000000001
 70
   192
  0
VERTEX
  5
539C
  8
0
 10
603.9999999999999
 20
-0.5
 30
81.99999999999991
 70
   192
  0
VERTEX
  5
539D
  8
0
 10
616.4999999999999
 20
-0.5
 30
78.65063509461089
 70
   192
  0
VERTEX
  5
539E
  8
0
 10
625.6506350946107
 20
-0.5
 30
69.49999999999996
 70
   192
  0
VERTEX
  5
539F
  8
0
 10
628.9999999999998
 20
-0.5
 30
57.00000000000001
 70
   192
  0
VERTEX
  5
53A0
  8
0
 10
628.9999999999998
 20
-0.5
 30
-89.00000000000006
 70
   192
  0
VERTEX
  5
53A1
  8
0
 10
0.0
 20
0.0
 30
0.0
 70
   128
 71
     1
 72
     6
 73
    -5
  0
VERTEX
  5
53A2
  8
0
 10
0.0
 20
0.0
 30
0.0
 70
   128
 71
    -1
 72
     5
 73
    -4
  0
VERTEX
  5
53A3
  8
0
 10
0.0
 20
0.0
 30
0.0
 70
   128
 71
    -1
 72
     4
 73
    -3
  0
VERTEX
  5
53A4
  8
0
 10
0.0
 20
0.0
 30
0.0
 70
   128
 71
    -1
 72
     3
 73
     2
  0
SEQEND
  5
5DD7
  8
0
  0
ENDBLK
  5
5DD1
  8
0
  0
BLOCK
  8
0
  2
*X6
 70
     1
 10
0.0
 20
0.0
 30
0.0
  3
*X6
  1

  0
POLYLINE
  5
53A6
  8
0
 66
     1
 10
0.0
 20
0.0
 30
0.0
 70
    64
 71
     4
 72
     2
  0
VERTEX
  5
53A7
  8
0
 10
586.0
 20
682.0
 30
-61.99999999999942
 70
   192
  0
VERTEX
  5
53A8
  8
0
 10
585.9999999999999
 20
682.0
 30
62.00000000000058
 70
   192
  0
VERTEX
  5
53A9
  8
0
 10
585.9999999999999
 20
700.0000000000001
 30
62.00000000000058
 70
   192
  0
VERTEX
  5
53AA
  8
0
 10
586.0000000000001
 20
700.0000000000001
 30
-61.99999999999942
 70
   192
  0
VERTEX
  5
53AB
  8
0
 10
0.0
 20
0.0
 30
0.0
 70
   128
 71
     1
 72
     4
 73
    -3
  0
VERTEX
  5
53AC
  8
0
 10
0.0
 20
0.0
 30
0.0
 70
   128
 71
    -1
 72
     3
 73
     2
  0
SEQEND
  5
5DDA
  8
0
  0
POLYLINE
  5
53AD
  8
0
 66
     1
 10
0.0
 20
0.0
 30
0.0
 70
    64
 71
     4
 72
     2
  0
VERTEX
  5
53AE
  8
0
 10
-586.0
 20
700.0000000000001
 30
62.00000000000058
 70
   192
  0
VERTEX
  5
53AF
  8
0
 10
-585.9999999999999
 20
700.0000000000001
 30
-61.99999999999942
 70
   192
  0
VERTEX
  5
53B0
  8
0
 10
586.0
 20
700.0000000000001
 30
-61.99999999999942
 70
   192
  0
VERTEX
  5
53B1
  8
0
 10
585.9999999999999
 20
700.0000000000001
 30
62.00000000000058
 70
   192
  0
VERTEX
  5
53B2
  8
0
 10
0.0
 20
0.0
 30
0.0
 70
   128
 71
     1
 72
     4
 73
    -3
  0
VERTEX
  5
53B3
  8
0
 10
0.0
 20
0.0
 30
0.0
 70
   128
 71
    -1
 72
     3
 73
     2
  0
SEQEND
  5
5DDB
  8
0
  0
POLYLINE
  5
53B4
  8
0
 66
     1
 10
0.0
 20
0.0
 30
0.0
 70
    64
 71
     4
 72
     2
  0
VERTEX
  5
53B5
  8
0
 10
-586.0
 20
682.0
 30
62.00000000000058
 70
   192
  0
VERTEX
  5
53B6
  8
0
 10
-585.9999999999999
 20
700.0000000000001
 30
62.00000000000058
 70
   192
  0
VERTEX
  5
53B7
  8
0
 10
585.9999999999999
 20
700.0000000000001
 30
62.00000000000058
 70
   192
  0
VERTEX
  5
53B8
  8
0
 10
585.9999999999999
 20
682.0
 30
62.00000000000058
 70
   192
  0
VERTEX
  5
53B9
  8
0
 10
0.0
 20
0.0
 30
0.0
 70
   128
 71
     1
 72
     4
 73
    -3
  0
VERTEX
  5
53BA
  8
0
 10
0.0
 20
0.0
 30
0.0
 70
   128
 71
    -1
 72
     3
 73
     2
  0
SEQEND
  5
5DDC
  8
0
  0
POLYLINE
  5
53BB
  8
0
 66
     1
 10
0.0
 20
0.0
 30
0.0
 70
    64
 71
     4
 72
     2
  0
VERTEX
  5
53BC
  8
0
 10
-586.0
 20
700.0000000000001
 30
-61.99999999999942
 70
   192
  0
VERTEX
  5
53BD
  8
0
 10
-585.9999999999999
 20
682.0
 30
-61.99999999999942
 70
   192
  0
VERTEX
  5
53BE
  8
0
 10
586.0000000000001
 20
682.0
 30
-61.99999999999942
 70
   192
  0
VERTEX
  5
53BF
  8
0
 10
585.9999999999999
 20
700.0000000000001
 30
-61.99999999999942
 70
   192
  0
VERTEX
  5
53C0
  8
0
 10
0.0
 20
0.0
 30
0.0
 70
   128
 71
     1
 72
     4
 73
    -3
  0
VERTEX
  5
53C1
  8
0
 10
0.0
 20
0.0
 30
0.0
 70
   128
 71
    -1
 72
     3
 73
     2
  0
SEQEND
  5
5DDD
  8
0
  0
POLYLINE
  5
53C2
  8
0
 66
     1
 10
0.0
 20
0.0
 30
0.0
 70
    64
 71
     4
 72
     2
  0
VERTEX
  5
53C3
  8
0
 10
-586.0
 20
682.0
 30
62.00000000000058
 70
   192
  0
VERTEX
  5
53C4
  8
0
 10
-586.0
 20
682.0
 30
-61.99999999999942
 70
   192
  0
VERTEX
  5
53C5
  8
0
 10
-586.0
 20
700.0000000000001
 30
-61.99999999999942
 70
   192
  0
VERTEX
  5
53C6
  8
0
 10
-586.0
 20
700.0000000000001
 30
62.00000000000058
 70
   192
  0
VERTEX
  5
53C7
  8
0
 10
0.0
 20
0.0
 30
0.0
 70
   128
 71
     1
 72
     4
 73
    -3
  0
VERTEX
  5
53C8
  8
0
 10
0.0
 20
0.0
 30
0.0
 70
   128
 71
    -1
 72
     3
 73
     2
  0
SEQEND
  5
5DDE
  8
0
  0
POLYLINE
  5
53C9
  8
0
 66
     1
 10
0.0
 20
0.0
 30
0.0
 70
    64
 71
     4
 72
     2
  0
VERTEX
  5
53CA
  8
0
 10
-586.0
 20
682.0
 30
-61.99999999999942
 70
   192
  0
VERTEX
  5
53CB
  8
0
 10
-585.9999999999999
 20
682.0
 30
62.00000000000058
 70
   192
  0
VERTEX
  5
53CC
  8
0
 10
585.9999999999999
 20
682.0
 30
62.00000000000058
 70
   192
  0
VERTEX
  5
53CD
  8
0
 10
586.0000000000001
 20
682.0
 30
-61.99999999999942
 70
   192
  0
VERTEX
  5
53CE
  8
0
 10
0.0
 20
0.0
 30
0.0
 70
   128
 71
     1
 72
     4
 73
    -3
  0
VERTEX
  5
53CF
  8
0
 10
0.0
 20
0.0
 30
0.0
 70
   128
 71
    -1
 72
     3
 73
     2
  0
SEQEND
  5
5DDF
  8
0
  0
ENDBLK
  5
5DD9
  8
0
  0
BLOCK
  8
0
  2
*X7
 70
     1
 10
0.0
 20
0.0
 30
0.0
  3
*X7
  1

  0
POLYLINE
  5
53D1
  8
0
 66
     1
 10
0.0
 20
0.0
 30
0.0
 70
    64
 71
     4
 72
     2
  0
VERTEX
  5
53D2
  8
0
 10
-287.9999999999996
 20
18.0
 30
-43.99999999999972
 70
   192
  0
VERTEX
  5
53D3
  8
0
 10
-287.9999999999996
 20
138.0
 30
-43.99999999999972
 70
   192
  0
VERTEX
  5
53D4
  8
0
 10
287.9999999999998
 20
138.0
 30
-43.99999999999972
 70
   192
  0
VERTEX
  5
53D5
  8
0
 10
287.9999999999998
 20
18.0
 30
-43.99999999999972
 70
   192
  0
VERTEX
  5
53D6
  8
0
 10
0.0
 20
0.0
 30
0.0
 70
   128
 71
     1
 72
     4
 73
    -3
  0
VERTEX
  5
53D7
  8
0
 10
0.0
 20
0.0
 30
0.0
 70
   128
 71
    -1
 72
     3
 73
     2
  0
SEQEND
  5
5DE2
  8
0
  0
POLYLINE
  5
53D8
  8
0
 66
     1
 10
0.0
 20
0.0
 30
0.0
 70
    64
 71
     4
 72
     2
  0
VERTEX
  5
53D9
  8
0
 10
287.9999999999998
 20
18.0
 30
-43.99999999999972
 70
   192
  0
VERTEX
  5
53DA
  8
0
 10
287.9999999999998
 20
138.0
 30
-43.99999999999972
 70
   192
  0
VERTEX
  5
53DB
  8
0
 10
287.9999999999998
 20
138.0
 30
-61.99999999999972
 70
   192
  0
VERTEX
  5
53DC
  8
0
 10
287.9999999999998
 20
18.0
 30
-61.99999999999972
 70
   192
  0
VERTEX
  5
53DD
  8
0
 10
0.0
 20
0.0
 30
0.0
 70
   128
 71
     1
 72
     4
 73
    -3
  0
VERTEX
  5
53DE
  8
0
 10
0.0
 20
0.0
 30
0.0
 70
   128
 71
    -1
 72
     3
 73
     2
  0
SEQEND
  5
5DE3
  8
0
  0
POLYLINE
  5
53DF
  8
0
 66
     1
 10
0.0
 20
0.0
 30
0.0
 70
    64
 71
     4
 72
     2
  0
VERTEX
  5
53E0
  8
0
 10
287.9999999999998
 20
18.0
 30
-61.99999999999972
 70
   192
  0
VERTEX
  5
53E1
  8
0
 10
287.9999999999998
 20
138.0
 30
-61.99999999999972
 70
   192
  0
VERTEX
  5
53E2
  8
0
 10
-287.9999999999996
 20
138.0
 30
-61.99999999999972
 70
   192
  0
VERTEX
  5
53E3
  8
0
 10
-287.9999999999996
 20
18.0
 30
-61.99999999999972
 70
   192
  0
VERTEX
  5
53E4
  8
0
 10
0.0
 20
0.0
 30
0.0
 70
   128
 71
     1
 72
     4
 73
    -3
  0
VERTEX
  5
53E5
  8
0
 10
0.0
 20
0.0
 30
0.0
 70
   128
 71
    -1
 72
     3
 73
     2
  0
SEQEND
  5
5DE4
  8
0
  0
POLYLINE
  5
53E6
  8
0
 66
     1
 10
0.0
 20
0.0
 30
0.0
 70
    64
 71
     4
 72
     2
  0
VERTEX
  5
53E7
  8
0
 10
-287.9999999999996
 20
18.0
 30
-61.99999999999972
 70
   192
  0
VERTEX
  5
53E8
  8
0
 10
-287.9999999999996
 20
138.0
 30
-61.99999999999972
 70
   192
  0
VERTEX
  5
53E9
  8
0
 10
-287.9999999999996
 20
138.0
 30
-43.99999999999972
 70
   192
  0
VERTEX
  5
53EA
  8
0
 10
-287.9999999999996
 20
18.0
 30
-43.99999999999972
 70
   192
  0
VERTEX
  5
53EB
  8
0
 10
0.0
 20
0.0
 30
0.0
 70
   128
 71
     1
 72
     4
 73
    -3
  0
VERTEX
  5
53EC
  8
0
 10
0.0
 20
0.0
 30
0.0
 70
   128
 71
    -1
 72
     3
 73
     2
  0
SEQEND
  5
5DE5
  8
0
  0
POLYLINE
  5
53ED
  8
0
 66
     1
 10
0.0
 20
0.0
 30
0.0
 70
    64
 71
     4
 72
     2
  0
VERTEX
  5
53EE
  8
0
 10
-287.9999999999996
 20
138.0
 30
-43.99999999999972
 70
   192
  0
VERTEX
  5
53EF
  8
0
 10
-287.9999999999996
 20
138.0
 30
-61.99999999999972
 70
   192
  0
VERTEX
  5
53F0
  8
0
 10
287.9999999999998
 20
138.0
 30
-61.99999999999972
 70
   192
  0
VERTEX
  5
53F1
  8
0
 10
287.9999999999998
 20
138.0
 30
-43.99999999999972
 70
   192
  0
VERTEX
  5
53F2
  8
0
 10
0.0
 20
0.0
 30
0.0
 70
   128
 71
     1
 72
     4
 73
    -3
  0
VERTEX
  5
53F3
  8
0
 10
0.0
 20
0.0
 30
0.0
 70
   128
 71
    -1
 72
     3
 73
     2
  0
SEQEND
  5
5DE6
  8
0
  0
POLYLINE
  5
53F4
  8
0
 66
     1
 10
0.0
 20
0.0
 30
0.0
 70
    64
 71
     4
 72
     2
  0
VERTEX
  5
53F5
  8
0
 10
287.9999999999998
 20
18.0
 30
-43.99999999999972
 70
   192
  0
VERTEX
  5
53F6
  8
0
 10
-287.9999999999996
 20
18.0
 30
-43.99999999999972
 70
   192
  0
VERTEX
  5
53F7
  8
0
 10
-287.9999999999996
 20
18.0
 30
-61.99999999999972
 70
   192
  0
VERTEX
  5
53F8
  8
0
 10
287.9999999999998
 20
18.0
 30
-61.99999999999972
 70
   192
  0
VERTEX
  5
53F9
  8
0
 10
0.0
 20
0.0
 30
0.0
 70
   128
 71
     3
 72
     4
 73
    -1
  0
VERTEX
  5
53FA
  8
0
 10
0.0
 20
0.0
 30
0.0
 70
   128
 71
     2
 72
    -3
 73
     1
  0
SEQEND
  5
5DE7
  8
0
  0
ENDBLK
  5
5DE1
  8
0
  0
BLOCK
  8
0
  2
*X8
 70
     1
 10
0.0
 20
0.0
 30
0.0
  3
*X8
  1

  0
POLYLINE
  5
53FC
  8
0
 66
     1
 10
0.0
 20
0.0
 30
0.0
 70
    64
 71
     4
 72
     2
  0
VERTEX
  5
53FD
  8
0
 10
-585.9999999999999
 20
700.5000000000001
 30
-64.9999999999998
 70
   192
  0
VERTEX
  5
53FE
  8
0
 10
-586.0
 20
700.5000000000001
 30
-61.99999999999994
 70
   192
  0
VERTEX
  5
53FF
  8
0
 10
586.0
 20
700.5000000000001
 30
-61.99999999999972
 70
   192
  0
VERTEX
  5
5400
  8
0
 10
585.9999999999999
 20
700.5000000000001
 30
-64.99999999999994
 70
   192
  0
VERTEX
  5
5401
  8
0
 10
0.0
 20
0.0
 30
0.0
 70
   128
 71
     3
 72
     4
 73
    -1
  0
VERTEX
  5
5402
  8
0
 10
0.0
 20
0.0
 30
0.0
 70
   128
 71
     2
 72
    -3
 73
     1
  0
SEQEND
  5
5DEA
  8
0
  0
POLYLINE
  5
5403
  8
0
 66
     1
 10
0.0
 20
0.0
 30
0.0
 70
    64
 71
     4
 72
     2
  0
VERTEX
  5
5404
  8
0
 10
-586.0
 20
-0.5
 30
-61.99999999999994
 70
   192
  0
VERTEX
  5
5405
  8
0
 10
-585.9999999999999
 20
-0.5
 30
-64.9999999999998
 70
   192
  0
VERTEX
  5
5406
  8
0
 10
585.9999999999999
 20
-0.5
 30
-64.99999999999994
 70
   192
  0
VERTEX
  5
5407
  8
0
 10
586.0
 20
-0.5
 30
-61.99999999999971
 70
   192
  0
VERTEX
  5
5408
  8
0
 10
0.0
 20
0.0
 30
0.0
 70
   128
 71
     3
 72
     4
 73
    -1
  0
VERTEX
  5
5409
  8
0
 10
0.0
 20
0.0
 30
0.0
 70
   128
 71
     2
 72
    -3
 73
     1
  0
SEQEND
  5
5DEB
  8
0
  0
POLYLINE
  5
540A
  8
0
 66
     1
 10
0.0
 20
0.0
 30
0.0
 70
    64
 71
     4
 72
     2
  0
VERTEX
  5
540B
  8
0
 10
-585.9999999999999
 20
-0.5
 30
-64.9999999999998
 70
   192
  0
VERTEX
  5
540C
  8
0
 10
-585.9999999999999
 20
700.5000000000002
 30
-64.9999999999998
 70
   192
  0
VERTEX
  5
540D
  8
0
 10
585.9999999999999
 20
700.5000000000001
 30
-64.99999999999994
 70
   192
  0
VERTEX
  5
540E
  8
0
 10
585.9999999999999
 20
-0.5
 30
-64.99999999999994
 70
   192
  0
VERTEX
  5
540F
  8
0
 10
0.0
 20
0.0
 30
0.0
 70
   128
 71
     3
 72
     4
 73
    -1
  0
VERTEX
  5
5410
  8
0
 10
0.0
 20
0.0
 30
0.0
 70
   128
 71
     2
 72
    -3
 73
     1
  0
SEQEND
  5
5DEC
  8
0
  0
POLYLINE
  5
5411
  8
0
 66
     1
 10
0.0
 20
0.0
 30
0.0
 70
    64
 71
     4
 72
     2
  0
VERTEX
  5
5412
  8
0
 10
585.9999999999999
 20
700.5000000000002
 30
-64.99999999999994
 70
   192
  0
VERTEX
  5
5413
  8
0
 10
585.9999999999999
 20
-0.5
 30
-64.99999999999994
 70
   192
  0
VERTEX
  5
5414
  8
0
 10
586.0
 20
-0.5
 30
-61.99999999999972
 70
   192
  0
VERTEX
  5
5415
  8
0
 10
586.0
 20
700.5000000000001
 30
-61.99999999999971
 70
   192
  0
VERTEX
  5
5416
  8
0
 10
0.0
 20
0.0
 30
0.0
 70
   128
 71
     1
 72
     4
 73
    -3
  0
VERTEX
  5
5417
  8
0
 10
0.0
 20
0.0
 30
0.0
 70
   128
 71
    -1
 72
     3
 73
     2
  0
SEQEND
  5
5DED
  8
0
  0
POLYLINE
  5
5418
  8
0
 66
     1
 10
0.0
 20
0.0
 30
0.0
 70
    64
 71
     4
 72
     2
  0
VERTEX
  5
5419
  8
0
 10
586.0
 20
700.5000000000002
 30
-61.99999999999972
 70
   192
  0
VERTEX
  5
541A
  8
0
 10
586.0
 20
-0.5
 30
-61.99999999999972
 70
   192
  0
VERTEX
  5
541B
  8
0
 10
-586.0
 20
-0.5
 30
-61.99999999999994
 70
   192
  0
VERTEX
  5
541C
  8
0
 10
-586.0
 20
700.5000000000001
 30
-61.99999999999994
 70
   192
  0
VERTEX
  5
541D
  8
0
 10
0.0
 20
0.0
 30
0.0
 70
   128
 71
     1
 72
     4
 73
    -3
  0
VERTEX
  5
541E
  8
0
 10
0.0
 20
0.0
 30
0.0
 70
   128
 71
    -1
 72
     3
 73
     2
  0
SEQEND
  5
5DEE
  8
0
  0
POLYLINE
  5
541F
  8
0
 66
     1
 10
0.0
 20
0.0
 30
0.0
 70
    64
 71
     4
 72
     2
  0
VERTEX
  5
5420
  8
0
 10
-586.0
 20
-0.5
 30
-61.99999999999994
 70
   192
  0
VERTEX
  5
5421
  8
0
 10
-586.0
 20
700.5000000000002
 30
-61.99999999999994
 70
   192
  0
VERTEX
  5
5422
  8
0
 10
-585.9999999999999
 20
700.5000000000001
 30
-64.9999999999998
 70
   192
  0
VERTEX
  5
5423
  8
0
 10
-585.9999999999999
 20
-0.5
 30
-64.9999999999998
 70
   192
  0
VERTEX
  5
5424
  8
0
 10
0.0
 20
0.0
 30
0.0
 70
   128
 71
     3
 72
     4
 73
    -1
  0
VERTEX
  5
5425
  8
0
 10
0.0
 20
0.0
 30
0.0
 70
   128
 71
     2
 72
    -3
 73
     1
  0
SEQEND
  5
5DEF
  8
0
  0
ENDBLK
  5
5DE9
  8
0
  0
BLOCK
  8
0
  2
*X9
 70
     1
 10
0.0
 20
0.0
 30
0.0
  3
*X9
  1

  0
POLYLINE
  5
5427
  8
0
 66
     1
 10
0.0
 20
0.0
 30
0.0
 70
    64
 71
    10
 72
     8
  0
VERTEX
  5
5428
  8
0
 10
185.9999999999997
 20
102.9999999999999
 30
-38.99999999999972
 70
   192
  0
VERTEX
  5
5429
  8
0
 10
189.9999999999997
 20
102.9999999999999
 30
-38.99999999999972
 70
   192
  0
VERTEX
  5
542A
  8
0
 10
189.9999999999997
 20
102.9999999999999
 30
-41.99999999999972
 70
   192
  0
VERTEX
  5
542B
  8
0
 10
185.9999999999997
 20
102.9999999999999
 30
-41.99999999999972
 70
   192
  0
VERTEX
  5
542C
  8
0
 10
187.9999999999997
 20
104.9999999999999
 30
-41.99999999999972
 70
   192
  0
VERTEX
  5
542D
  8
0
 10
187.9999999999997
 20
104.9999999999999
 30
-38.99999999999972
 70
   192
  0
VERTEX
  5
542E
  8
0
 10
186.5857864376266
 20
104.414213562373
 30
-41.99999999999972
 70
   192
  0
VERTEX
  5
542F
  8
0
 10
186.5857864376266
 20
104.414213562373
 30
-38.99999999999972
 70
   192
  0
VERTEX
  5
5430
  8
0
 10
189.4142135623728
 20
104.414213562373
 30
-41.99999999999972
 70
   192
  0
VERTEX
  5
5431
  8
0
 10
189.4142135623728
 20
104.414213562373
 30
-38.99999999999972
 70
   192
  0
VERTEX
  5
5432
  8
0
 10
0.0
 20
0.0
 30
0.0
 70
   128
 71
     7
 72
     4
 73
    -1
  0
VERTEX
  5
5433
  8
0
 10
0.0
 20
0.0
 30
0.0
 70
   128
 71
    -7
 72
     1
 73
     8
  0
VERTEX
  5
5434
  8
0
 10
0.0
 20
0.0
 30
0.0
 70
   128
 71
     6
 72
     5
 73
    -7
  0
VERTEX
  5
5435
  8
0
 10
0.0
 20
0.0
 30
0.0
 70
   128
 71
    -6
 72
     7
 73
     8
  0
VERTEX
  5
5436
  8
0
 10
0.0
 20
0.0
 30
0.0
 70
   128
 71
    10
 72
     9
 73
    -5
  0
VERTEX
  5
5437
  8
0
 10
0.0
 20
0.0
 30
0.0
 70
   128
 71
   -10
 72
     5
 73
     6
  0
VERTEX
  5
5438
  8
0
 10
0.0
 20
0.0
 30
0.0
 70
   128
 71
     2
 72
     3
 73
    -9
  0
VERTEX
  5
5439
  8
0
 10
0.0
 20
0.0
 30
0.0
 70
   128
 71
    -2
 72
     9
 73
    10
  0
SEQEND
  5
5DF2
  8
0
  0
POLYLINE
  5
543A
  8
0
 66
     1
 10
0.0
 20
0.0
 30
0.0
 70
    64
 71
    10
 72
     8
  0
VERTEX
  5
543B
  8
0
 10
174.9999999999997
 20
87.99999999999993
 30
-42.99999999999972
 70
   192
  0
VERTEX
  5
543C
  8
0
 10
180.9999999999997
 20
87.99999999999993
 30
-42.99999999999972
 70
   192
  0
VERTEX
  5
543D
  8
0
 10
180.9999999999997
 20
87.99999999999993
 30
-41.99999999999972
 70
   192
  0
VERTEX
  5
543E
  8
0
 10
174.9999999999997
 20
87.99999999999993
 30
-41.99999999999972
 70
   192
  0
VERTEX
  5
543F
  8
0
 10
177.9999999999997
 20
84.99999999999993
 30
-41.99999999999972
 70
   192
  0
VERTEX
  5
5440
  8
0
 10
177.9999999999997
 20
84.99999999999993
 30
-42.99999999999972
 70
   192
  0
VERTEX
  5
5441
  8
0
 10
175.8786796564401
 20
85.87867965644028
 30
-41.99999999999972
 70
   192
  0
VERTEX
  5
5442
  8
0
 10
175.8786796564401
 20
85.87867965644028
 30
-42.99999999999972
 70
   192
  0
VERTEX
  5
5443
  8
0
 10
180.1213203435593
 20
85.87867965644028
 30
-41.99999999999972
 70
   192
  0
VERTEX
  5
5444
  8
0
 10
180.1213203435593
 20
85.87867965644028
 30
-42.99999999999972
 70
   192
  0
VERTEX
  5
5445
  8
0
 10
0.0
 20
0.0
 30
0.0
 70
   128
 71
     8
 72
     1
 73
    -4
  0
VERTEX
  5
5446
  8
0
 10
0.0
 20
0.0
 30
0.0
 70
   128
 71
     7
 72
    -8
 73
     4
  0
VERTEX
  5
5447
  8
0
 10
0.0
 20
0.0
 30
0.0
 70
   128
 71
     6
 72
     8
 73
    -7
  0
VERTEX
  5
5448
  8
0
 10
0.0
 20
0.0
 30
0.0
 70
   128
 71
     5
 72
    -6
 73
     7
  0
VERTEX
  5
5449
  8
0
 10
0.0
 20
0.0
 30
0.0
 70
   128
 71
    10
 72
     6
 73
    -5
  0
VERTEX
  5
544A
  8
0
 10
0.0
 20
0.0
 30
0.0
 70
   128
 71
     9
 72
   -10
 73
     5
  0
VERTEX
  5
544B
  8
0
 10
0.0
 20
0.0
 30
0.0
 70
   128
 71
     2
 72
    10
 73
    -9
  0
VERTEX
  5
544C
  8
0
 10
0.0
 20
0.0
 30
0.0
 70
   128
 71
     3
 72
    -2
 73
     9
  0
SEQEND
  5
5DF3
  8
0
  0
POLYLINE
  5
544D
  8
0
 66
     1
 10
0.0
 20
0.0
 30
0.0
 70
    64
 71
    10
 72
     8
  0
VERTEX
  5
544E
  8
0
 10
194.9999999999997
 20
87.99999999999993
 30
-42.99999999999972
 70
   192
  0
VERTEX
  5
544F
  8
0
 10
200.9999999999997
 20
87.99999999999993
 30
-42.99999999999972
 70
   192
  0
VERTEX
  5
5450
  8
0
 10
200.9999999999997
 20
87.99999999999993
 30
-41.99999999999972
 70
   192
  0
VERTEX
  5
5451
  8
0
 10
194.9999999999997
 20
87.99999999999993
 30
-41.99999999999972
 70
   192
  0
VERTEX
  5
5452
  8
0
 10
197.9999999999997
 20
84.99999999999993
 30
-41.99999999999972
 70
   192
  0
VERTEX
  5
5453
  8
0
 10
197.9999999999997
 20
84.99999999999993
 30
-42.99999999999972
 70
   192
  0
VERTEX
  5
5454
  8
0
 10
195.8786796564401
 20
85.87867965644028
 30
-41.99999999999972
 70
   192
  0
VERTEX
  5
5455
  8
0
 10
195.8786796564401
 20
85.87867965644028
 30
-42.99999999999972
 70
   192
  0
VERTEX
  5
5456
  8
0
 10
200.1213203435594
 20
85.87867965644028
 30
-41.99999999999972
 70
   192
  0
VERTEX
  5
5457
  8
0
 10
200.1213203435594
 20
85.87867965644028
 30
-42.99999999999972
 70
   192
  0
VERTEX
  5
5458
  8
0
 10
0.0
 20
0.0
 30
0.0
 70
   128
 71
     8
 72
     1
 73
    -4
  0
VERTEX
  5
5459
  8
0
 10
0.0
 20
0.0
 30
0.0
 70
   128
 71
     7
 72
    -8
 73
     4
  0
VERTEX
  5
545A
  8
0
 10
0.0
 20
0.0
 30
0.0
 70
   128
 71
     6
 72
     8
 73
    -7
  0
VERTEX
  5
545B
  8
0
 10
0.0
 20
0.0
 30
0.0
 70
   128
 71
     5
 72
    -6
 73
     7
  0
VERTEX
  5
545C
  8
0
 10
0.0
 20
0.0
 30
0.0
 70
   128
 71
    10
 72
     6
 73
    -5
  0
VERTEX
  5
545D
  8
0
 10
0.0
 20
0.0
 30
0.0
 70
   128
 71
     9
 72
   -10
 73
     5
  0
VERTEX
  5
545E
  8
0
 10
0.0
 20
0.0
 30
0.0
 70
   128
 71
     2
 72
    10
 73
    -9
  0
VERTEX
  5
545F
  8
0
 10
0.0
 20
0.0
 30
0.0
 70
   128
 71
     3
 72
    -2
 73
     9
  0
SEQEND
  5
5DF4
  8
0
  0
POLYLINE
  5
5460
  8
0
 66
     1
 10
0.0
 20
0.0
 30
0.0
 70
    64
 71
    10
 72
     8
  0
VERTEX
  5
5461
  8
0
 10
185.4999999999997
 20
87.99999999999993
 30
-42.99999999999972
 70
   192
  0
VERTEX
  5
5462
  8
0
 10
190.4999999999997
 20
87.99999999999993
 30
-42.99999999999972
 70
   192
  0
VERTEX
  5
5463
  8
0
 10
190.4999999999997
 20
87.99999999999993
 30
-41.99999999999972
 70
   192
  0
VERTEX
  5
5464
  8
0
 10
185.4999999999997
 20
87.99999999999993
 30
-41.99999999999972
 70
   192
  0
VERTEX
  5
5465
  8
0
 10
187.9999999999997
 20
85.4999999999999
 30
-41.99999999999972
 70
   192
  0
VERTEX
  5
5466
  8
0
 10
187.9999999999997
 20
85.4999999999999
 30
-42.99999999999972
 70
   192
  0
VERTEX
  5
5467
  8
0
 10
186.2322330470333
 20
86.23223304703355
 30
-41.99999999999972
 70
   192
  0
VERTEX
  5
5468
  8
0
 10
186.2322330470333
 20
86.23223304703355
 30
-42.99999999999972
 70
   192
  0
VERTEX
  5
5469
  8
0
 10
189.7677669529661
 20
86.23223304703353
 30
-41.99999999999972
 70
   192
  0
VERTEX
  5
546A
  8
0
 10
189.7677669529661
 20
86.23223304703353
 30
-42.99999999999972
 70
   192
  0
VERTEX
  5
546B
  8
0
 10
0.0
 20
0.0
 30
0.0
 70
   128
 71
     8
 72
     1
 73
    -4
  0
VERTEX
  5
546C
  8
0
 10
0.0
 20
0.0
 30
0.0
 70
   128
 71
     7
 72
    -8
 73
     4
  0
VERTEX
  5
546D
  8
0
 10
0.0
 20
0.0
 30
0.0
 70
   128
 71
     6
 72
     8
 73
    -7
  0
VERTEX
  5
546E
  8
0
 10
0.0
 20
0.0
 30
0.0
 70
   128
 71
     5
 72
    -6
 73
     7
  0
VERTEX
  5
546F
  8
0
 10
0.0
 20
0.0
 30
0.0
 70
   128
 71
    10
 72
     6
 73
    -5
  0
VERTEX
  5
5470
  8
0
 10
0.0
 20
0.0
 30
0.0
 70
   128
 71
     9
 72
   -10
 73
     5
  0
VERTEX
  5
5471
  8
0
 10
0.0
 20
0.0
 30
0.0
 70
   128
 71
     2
 72
    10
 73
    -9
  0
VERTEX
  5
5472
  8
0
 10
0.0
 20
0.0
 30
0.0
 70
   128
 71
     3
 72
    -2
 73
     9
  0
SEQEND
  5
5DF5
  8
0
  0
POLYLINE
  5
5473
  8
0
 66
     1
 10
0.0
 20
0.0
 30
0.0
 70
    64
 71
    12
 72
    10
  0
VERTEX
  5
5474
  8
0
 10
206.202882373436
 20
101.2251681765806
 30
-43.99999999999972
 70
   192
  0
VERTEX
  5
5475
  8
0
 10
210.4999999999997
 20
87.99999999999993
 30
-43.99999999999972
 70
   192
  0
VERTEX
  5
5476
  8
0
 10
210.4999999999997
 20
87.99999999999993
 30
-73.99999999999972
 70
   192
  0
VERTEX
  5
5477
  8
0
 10
206.202882373436
 20
101.2251681765806
 30
-73.99999999999972
 70
   192
  0
VERTEX
  5
5478
  8
0
 10
169.7971176265634
 20
101.2251681765806
 30
-73.99999999999972
 70
   192
  0
VERTEX
  5
5479
  8
0
 10
165.4999999999997
 20
87.99999999999993
 30
-73.99999999999972
 70
   192
  0
VERTEX
  5
547A
  8
0
 10
165.4999999999997
 20
87.99999999999993
 30
-43.99999999999972
 70
   192
  0
VERTEX
  5
547B
  8
0
 10
169.7971176265634
 20
101.2251681765806
 30
-43.99999999999972
 70
   192
  0
VERTEX
  5
547C
  8
0
 10
194.952882373436
 20
109.3987716166409
 30
-43.99999999999972
 70
   192
  0
VERTEX
  5
547D
  8
0
 10
194.952882373436
 20
109.3987716166409
 30
-73.99999999999972
 70
   192
  0
VERTEX
  5
547E
  8
0
 10
181.0471176265634
 20
109.3987716166409
 30
-73.99999999999972
 70
   192
  0
VERTEX
  5
547F
  8
0
 10
181.0471176265634
 20
109.3987716166409
 30
-43.99999999999972
 70
   192
  0
VERTEX
  5
5480
  8
0
 10
0.0
 20
0.0
 30
0.0
 70
   128
 71
     1
 72
     2
 73
    -3
  0
VERTEX
  5
5481
  8
0
 10
0.0
 20
0.0
 30
0.0
 70
   128
 71
    -1
 72
     3
 73
     4
  0
VERTEX
  5
5482
  8
0
 10
0.0
 20
0.0
 30
0.0
 70
   128
 71
     5
 72
     6
 73
    -7
  0
VERTEX
  5
5483
  8
0
 10
0.0
 20
0.0
 30
0.0
 70
   128
 71
    -5
 72
     7
 73
     8
  0
VERTEX
  5
5484
  8
0
 10
0.0
 20
0.0
 30
0.0
 70
   128
 71
     9
 72
    10
 73
   -11
  0
VERTEX
  5
5485
  8
0
 10
0.0
 20
0.0
 30
0.0
 70
   128
 71
    -9
 72
    11
 73
    12
  0
VERTEX
  5
5486
  8
0
 10
0.0
 20
0.0
 30
0.0
 70
   128
 71
     1
 72
     4
 73
   -10
  0
VERTEX
  5
5487
  8
0
 10
0.0
 20
0.0
 30
0.0
 70
   128
 71
    -1
 72
    10
 73
     9
  0
VERTEX
  5
5488
  8
0
 10
0.0
 20
0.0
 30
0.0
 70
   128
 71
    12
 72
    11
 73
    -5
  0
VERTEX
  5
5489
  8
0
 10
0.0
 20
0.0
 30
0.0
 70
   128
 71
   -12
 72
     5
 73
     8
  0
SEQEND
  5
5DF6
  8
0
  0
POLYLINE
  5
548A
  8
0
 66
     1
 10
0.0
 20
0.0
 30
0.0
 70
    64
 71
    12
 72
    10
  0
VERTEX
  5
548B
  8
0
 10
165.4999999999997
 20
87.99999999999993
 30
-41.99999999999972
 70
   192
  0
VERTEX
  5
548C
  8
0
 10
165.4999999999997
 20
87.99999999999993
 30
-38.99999999999972
 70
   192
  0
VERTEX
  5
548D
  8
0
 10
169.7971176265634
 20
74.77483182341929
 30
-38.99999999999972
 70
   192
  0
VERTEX
  5
548E
  8
0
 10
169.7971176265634
 20
74.77483182341929
 30
-41.99999999999972
 70
   192
  0
VERTEX
  5
548F
  8
0
 10
210.4999999999997
 20
87.99999999999993
 30
-38.99999999999972
 70
   192
  0
VERTEX
  5
5490
  8
0
 10
210.4999999999997
 20
87.99999999999993
 30
-41.99999999999972
 70
   192
  0
VERTEX
  5
5491
  8
0
 10
206.202882373436
 20
74.77483182341928
 30
-41.99999999999972
 70
   192
  0
VERTEX
  5
5492
  8
0
 10
206.202882373436
 20
74.77483182341928
 30
-38.99999999999972
 70
   192
  0
VERTEX
  5
5493
  8
0
 10
194.952882373436
 20
66.60122838335897
 30
-41.99999999999972
 70
   192
  0
VERTEX
  5
5494
  8
0
 10
181.0471176265634
 20
66.60122838335897
 30
-41.99999999999972
 70
   192
  0
VERTEX
  5
5495
  8
0
 10
181.0471176265634
 20
66.60122838335897
 30
-38.99999999999972
 70
   192
  0
VERTEX
  5
5496
  8
0
 10
194.952882373436
 20
66.60122838335897
 30
-38.99999999999972
 70
   192
  0
VERTEX
  5
5497
  8
0
 10
0.0
 20
0.0
 30
0.0
 70
   128
 71
     1
 72
     2
 73
    -3
  0
VERTEX
  5
5498
  8
0
 10
0.0
 20
0.0
 30
0.0
 70
   128
 71
     4
 72
    -1
 73
     3
  0
VERTEX
  5
5499
  8
0
 10
0.0
 20
0.0
 30
0.0
 70
   128
 71
     5
 72
     6
 73
    -7
  0
VERTEX
  5
549A
  8
0
 10
0.0
 20
0.0
 30
0.0
 70
   128
 71
     8
 72
    -5
 73
     7
  0
VERTEX
  5
549B
  8
0
 10
0.0
 20
0.0
 30
0.0
 70
   128
 71
     9
 72
    10
 73
   -11
  0
VERTEX
  5
549C
  8
0
 10
0.0
 20
0.0
 30
0.0
 70
   128
 71
    12
 72
    -9
 73
    11
  0
VERTEX
  5
549D
  8
0
 10
0.0
 20
0.0
 30
0.0
 70
   128
 71
    10
 72
     4
 73
    -3
  0
VERTEX
  5
549E
  8
0
 10
0.0
 20
0.0
 30
0.0
 70
   128
 71
    11
 72
   -10
 73
     3
  0
VERTEX
  5
549F
  8
0
 10
0.0
 20
0.0
 30
0.0
 70
   128
 71
     7
 72
     9
 73
   -12
  0
VERTEX
  5
54A0
  8
0
 10
0.0
 20
0.0
 30
0.0
 70
   128
 71
     8
 72
    -7
 73
    12
  0
SEQEND
  5
5DF7
  8
0
  0
POLYLINE
  5
54A1
  8
0
 66
     1
 10
0.0
 20
0.0
 30
0.0
 70
    64
 71
     4
 72
     2
  0
VERTEX
  5
54A2
  8
0
 10
157.9999999999997
 20
117.9999999999999
 30
-43.99999999999972
 70
   192
  0
VERTEX
  5
54A3
  8
0
 10
157.9999999999997
 20
117.9999999999999
 30
-38.99999999999972
 70
   192
  0
VERTEX
  5
54A4
  8
0
 10
157.9999999999998
 20
57.99999999999998
 30
-38.99999999999972
 70
   192
  0
VERTEX
  5
54A5
  8
0
 10
157.9999999999998
 20
57.99999999999998
 30
-43.99999999999972
 70
   192
  0
VERTEX
  5
54A6
  8
0
 10
0.0
 20
0.0
 30
0.0
 70
   128
 71
     1
 72
     4
 73
    -3
  0
VERTEX
  5
54A7
  8
0
 10
0.0
 20
0.0
 30
0.0
 70
   128
 71
    -1
 72
     3
 73
     2
  0
SEQEND
  5
5DF8
  8
0
  0
POLYLINE
  5
54A8
  8
0
 66
     1
 10
0.0
 20
0.0
 30
0.0
 70
    64
 71
     4
 72
     2
  0
VERTEX
  5
54A9
  8
0
 10
157.9999999999998
 20
57.99999999999998
 30
-43.99999999999972
 70
   192
  0
VERTEX
  5
54AA
  8
0
 10
157.9999999999998
 20
57.99999999999998
 30
-38.99999999999972
 70
   192
  0
VERTEX
  5
54AB
  8
0
 10
217.9999999999998
 20
58.00000000000002
 30
-38.99999999999972
 70
   192
  0
VERTEX
  5
54AC
  8
0
 10
217.9999999999998
 20
58.00000000000003
 30
-43.99999999999972
 70
   192
  0
VERTEX
  5
54AD
  8
0
 10
0.0
 20
0.0
 30
0.0
 70
   128
 71
     1
 72
     4
 73
    -3
  0
VERTEX
  5
54AE
  8
0
 10
0.0
 20
0.0
 30
0.0
 70
   128
 71
    -1
 72
     3
 73
     2
  0
SEQEND
  5
5DF9
  8
0
  0
POLYLINE
  5
54AF
  8
0
 66
     1
 10
0.0
 20
0.0
 30
0.0
 70
    64
 71
     4
 72
     2
  0
VERTEX
  5
54B0
  8
0
 10
217.9999999999998
 20
58.00000000000002
 30
-43.99999999999972
 70
   192
  0
VERTEX
  5
54B1
  8
0
 10
217.9999999999998
 20
58.00000000000002
 30
-38.99999999999972
 70
   192
  0
VERTEX
  5
54B2
  8
0
 10
217.9999999999998
 20
117.9999999999999
 30
-38.99999999999972
 70
   192
  0
VERTEX
  5
54B3
  8
0
 10
217.9999999999998
 20
117.9999999999999
 30
-43.99999999999972
 70
   192
  0
VERTEX
  5
54B4
  8
0
 10
0.0
 20
0.0
 30
0.0
 70
   128
 71
     1
 72
     4
 73
    -3
  0
VERTEX
  5
54B5
  8
0
 10
0.0
 20
0.0
 30
0.0
 70
   128
 71
    -1
 72
     3
 73
     2
  0
SEQEND
  5
5DFA
  8
0
  0
POLYLINE
  5
54B6
  8
0
 66
     1
 10
0.0
 20
0.0
 30
0.0
 70
    64
 71
     4
 72
     2
  0
VERTEX
  5
54B7
  8
0
 10
217.9999999999998
 20
117.9999999999999
 30
-43.99999999999972
 70
   192
  0
VERTEX
  5
54B8
  8
0
 10
217.9999999999998
 20
117.9999999999999
 30
-38.99999999999972
 70
   192
  0
VERTEX
  5
54B9
  8
0
 10
157.9999999999997
 20
117.9999999999999
 30
-38.99999999999972
 70
   192
  0
VERTEX
  5
54BA
  8
0
 10
157.9999999999997
 20
117.9999999999999
 30
-43.99999999999972
 70
   192
  0
VERTEX
  5
54BB
  8
0
 10
0.0
 20
0.0
 30
0.0
 70
   128
 71
     1
 72
     4
 73
    -3
  0
VERTEX
  5
54BC
  8
0
 10
0.0
 20
0.0
 30
0.0
 70
   128
 71
    -1
 72
     3
 73
     2
  0
SEQEND
  5
5DFB
  8
0
  0
POLYLINE
  5
54BD
  8
0
 66
     1
 10
0.0
 20
0.0
 30
0.0
 70
    64
 71
    14
 72
    14
  0
VERTEX
  5
54BE
  8
0
 10
157.9999999999997
 20
117.9999999999999
 30
-38.99999999999972
 70
   192
  0
VERTEX
  5
54BF
  8
0
 10
157.9999999999998
 20
57.99999999999998
 30
-38.99999999999972
 70
   192
  0
VERTEX
  5
54C0
  8
0
 10
217.9999999999998
 20
58.00000000000003
 30
-38.99999999999972
 70
   192
  0
VERTEX
  5
54C1
  8
0
 10
217.9999999999998
 20
117.9999999999999
 30
-38.99999999999972
 70
   192
  0
VERTEX
  5
54C2
  8
0
 10
165.4999999999997
 20
87.99999999999993
 30
-38.99999999999972
 70
   192
  0
VERTEX
  5
54C3
  8
0
 10
169.7971176265634
 20
101.2251681765806
 30
-38.99999999999972
 70
   192
  0
VERTEX
  5
54C4
  8
0
 10
181.0471176265634
 20
109.3987716166409
 30
-38.99999999999972
 70
   192
  0
VERTEX
  5
54C5
  8
0
 10
194.952882373436
 20
109.3987716166409
 30
-38.99999999999972
 70
   192
  0
VERTEX
  5
54C6
  8
0
 10
206.202882373436
 20
101.2251681765806
 30
-38.99999999999972
 70
   192
  0
VERTEX
  5
54C7
  8
0
 10
210.4999999999997
 20
87.99999999999993
 30
-38.99999999999972
 70
   192
  0
VERTEX
  5
54C8
  8
0
 10
206.202882373436
 20
74.77483182341928
 30
-38.99999999999972
 70
   192
  0
VERTEX
  5
54C9
  8
0
 10
194.952882373436
 20
66.60122838335897
 30
-38.99999999999972
 70
   192
  0
VERTEX
  5
54CA
  8
0
 10
181.0471176265634
 20
66.60122838335897
 30
-38.99999999999972
 70
   192
  0
VERTEX
  5
54CB
  8
0
 10
169.7971176265634
 20
74.77483182341929
 30
-38.99999999999972
 70
   192
  0
VERTEX
  5
54CC
  8
0
 10
0.0
 20
0.0
 30
0.0
 70
   128
 71
     1
 72
    -2
 73
    -5
  0
VERTEX
  5
54CD
  8
0
 10
0.0
 20
0.0
 30
0.0
 70
   128
 71
     5
 72
    -6
 73
    -1
  0
VERTEX
  5
54CE
  8
0
 10
0.0
 20
0.0
 30
0.0
 70
   128
 71
     6
 72
    -7
 73
    -1
  0
VERTEX
  5
54CF
  8
0
 10
0.0
 20
0.0
 30
0.0
 70
   128
 71
    -8
 72
     4
 73
    -1
  0
VERTEX
  5
54D0
  8
0
 10
0.0
 20
0.0
 30
0.0
 70
   128
 71
     7
 72
    -8
 73
    -1
  0
VERTEX
  5
54D1
  8
0
 10
0.0
 20
0.0
 30
0.0
 70
   128
 71
     8
 72
    -9
 73
    -4
  0
VERTEX
  5
54D2
  8
0
 10
0.0
 20
0.0
 30
0.0
 70
   128
 71
     9
 72
   -10
 73
    -4
  0
VERTEX
  5
54D3
  8
0
 10
0.0
 20
0.0
 30
0.0
 70
   128
 71
   -10
 72
     3
 73
    -4
  0
VERTEX
  5
54D4
  8
0
 10
0.0
 20
0.0
 30
0.0
 70
   128
 71
    10
 72
   -11
 73
    -3
  0
VERTEX
  5
54D5
  8
0
 10
0.0
 20
0.0
 30
0.0
 70
   128
 71
    11
 72
   -12
 73
    -3
  0
VERTEX
  5
54D6
  8
0
 10
0.0
 20
0.0
 30
0.0
 70
   128
 71
   -13
 72
     2
 73
    -3
  0
VERTEX
  5
54D7
  8
0
 10
0.0
 20
0.0
 30
0.0
 70
   128
 71
    12
 72
   -13
 73
    -3
  0
VERTEX
  5
54D8
  8
0
 10
0.0
 20
0.0
 30
0.0
 70
   128
 71
    13
 72
   -14
 73
    -2
  0
VERTEX
  5
54D9
  8
0
 10
0.0
 20
0.0
 30
0.0
 70
   128
 71
    14
 72
    -5
 73
    -2
  0
SEQEND
  5
5DFC
  8
0
  0
POLYLINE
  5
54DA
  8
0
 66
     1
 10
0.0
 20
0.0
 30
0.0
 70
    64
 71
    14
 72
    14
  0
VERTEX
  5
54DB
  8
0
 10
157.9999999999998
 20
57.99999999999998
 30
-43.99999999999972
 70
   192
  0
VERTEX
  5
54DC
  8
0
 10
217.9999999999998
 20
58.00000000000002
 30
-43.99999999999972
 70
   192
  0
VERTEX
  5
54DD
  8
0
 10
217.9999999999998
 20
117.9999999999999
 30
-43.99999999999972
 70
   192
  0
VERTEX
  5
54DE
  8
0
 10
157.9999999999997
 20
117.9999999999999
 30
-43.99999999999972
 70
   192
  0
VERTEX
  5
54DF
  8
0
 10
210.4999999999997
 20
87.99999999999993
 30
-43.99999999999972
 70
   192
  0
VERTEX
  5
54E0
  8
0
 10
206.202882373436
 20
74.77483182341928
 30
-43.99999999999972
 70
   192
  0
VERTEX
  5
54E1
  8
0
 10
194.952882373436
 20
66.60122838335897
 30
-43.99999999999972
 70
   192
  0
VERTEX
  5
54E2
  8
0
 10
181.0471176265634
 20
66.60122838335897
 30
-43.99999999999972
 70
   192
  0
VERTEX
  5
54E3
  8
0
 10
169.7971176265634
 20
74.77483182341929
 30
-43.99999999999972
 70
   192
  0
VERTEX
  5
54E4
  8
0
 10
165.4999999999997
 20
87.99999999999993
 30
-43.99999999999972
 70
   192
  0
VERTEX
  5
54E5
  8
0
 10
169.7971176265634
 20
101.2251681765806
 30
-43.99999999999972
 70
   192
  0
VERTEX
  5
54E6
  8
0
 10
181.0471176265634
 20
109.3987716166409
 30
-43.99999999999972
 70
   192
  0
VERTEX
  5
54E7
  8
0
 10
194.952882373436
 20
109.3987716166409
 30
-43.99999999999972
 70
   192
  0
VERTEX
  5
54E8
  8
0
 10
206.202882373436
 20
101.2251681765806
 30
-43.99999999999972
 70
   192
  0
VERTEX
  5
54E9
  8
0
 10
0.0
 20
0.0
 30
0.0
 70
   128
 71
     6
 72
    -5
 73
    -2
  0
VERTEX
  5
54EA
  8
0
 10
0.0
 20
0.0
 30
0.0
 70
   128
 71
    -2
 72
     7
 73
    -6
  0
VERTEX
  5
54EB
  8
0
 10
0.0
 20
0.0
 30
0.0
 70
   128
 71
     2
 72
    -1
 73
    -8
  0
VERTEX
  5
54EC
  8
0
 10
0.0
 20
0.0
 30
0.0
 70
   128
 71
    -2
 72
     8
 73
    -7
  0
VERTEX
  5
54ED
  8
0
 10
0.0
 20
0.0
 30
0.0
 70
   128
 71
    -1
 72
     9
 73
    -8
  0
VERTEX
  5
54EE
  8
0
 10
0.0
 20
0.0
 30
0.0
 70
   128
 71
    -1
 72
    10
 73
    -9
  0
VERTEX
  5
54EF
  8
0
 10
0.0
 20
0.0
 30
0.0
 70
   128
 71
   -10
 72
     1
 73
    -4
  0
VERTEX
  5
54F0
  8
0
 10
0.0
 20
0.0
 30
0.0
 70
   128
 71
    -4
 72
    11
 73
   -10
  0
VERTEX
  5
54F1
  8
0
 10
0.0
 20
0.0
 30
0.0
 70
   128
 71
    -4
 72
    12
 73
   -11
  0
VERTEX
  5
54F2
  8
0
 10
0.0
 20
0.0
 30
0.0
 70
   128
 71
     4
 72
    -3
 73
   -13
  0
VERTEX
  5
54F3
  8
0
 10
0.0
 20
0.0
 30
0.0
 70
   128
 71
    -4
 72
    13
 73
   -12
  0
VERTEX
  5
54F4
  8
0
 10
0.0
 20
0.0
 30
0.0
 70
   128
 71
    -3
 72
    14
 73
   -13
  0
VERTEX
  5
54F5
  8
0
 10
0.0
 20
0.0
 30
0.0
 70
   128
 71
    -3
 72
     5
 73
   -14
  0
VERTEX
  5
54F6
  8
0
 10
0.0
 20
0.0
 30
0.0
 70
   128
 71
     3
 72
    -2
 73
    -5
  0
SEQEND
  5
5DFD
  8
0
  0
POLYLINE
  5
54F7
  8
0
 66
     1
 10
0.0
 20
0.0
 30
0.0
 70
    64
 71
    12
 72
    10
  0
VERTEX
  5
54F8
  8
0
 10
210.4999999999997
 20
87.99999999999993
 30
-41.99999999999972
 70
   192
  0
VERTEX
  5
54F9
  8
0
 10
210.4999999999997
 20
87.99999999999993
 30
-38.99999999999972
 70
   192
  0
VERTEX
  5
54FA
  8
0
 10
206.202882373436
 20
101.2251681765806
 30
-38.99999999999972
 70
   192
  0
VERTEX
  5
54FB
  8
0
 10
206.202882373436
 20
101.2251681765806
 30
-41.99999999999972
 70
   192
  0
VERTEX
  5
54FC
  8
0
 10
165.4999999999997
 20
87.99999999999993
 30
-38.99999999999972
 70
   192
  0
VERTEX
  5
54FD
  8
0
 10
165.4999999999997
 20
87.99999999999993
 30
-41.99999999999972
 70
   192
  0
VERTEX
  5
54FE
  8
0
 10
169.7971176265634
 20
101.2251681765806
 30
-41.99999999999972
 70
   192
  0
VERTEX
  5
54FF
  8
0
 10
169.7971176265634
 20
101.2251681765806
 30
-38.99999999999972
 70
   192
  0
VERTEX
  5
5500
  8
0
 10
181.0471176265634
 20
109.3987716166409
 30
-41.99999999999972
 70
   192
  0
VERTEX
  5
5501
  8
0
 10
194.952882373436
 20
109.3987716166409
 30
-41.99999999999972
 70
   192
  0
VERTEX
  5
5502
  8
0
 10
194.952882373436
 20
109.3987716166409
 30
-38.99999999999972
 70
   192
  0
VERTEX
  5
5503
  8
0
 10
181.0471176265634
 20
109.3987716166409
 30
-38.99999999999972
 70
   192
  0
VERTEX
  5
5504
  8
0
 10
0.0
 20
0.0
 30
0.0
 70
   128
 71
     1
 72
     2
 73
    -3
  0
VERTEX
  5
5505
  8
0
 10
0.0
 20
0.0
 30
0.0
 70
   128
 71
     4
 72
    -1
 73
     3
  0
VERTEX
  5
5506
  8
0
 10
0.0
 20
0.0
 30
0.0
 70
   128
 71
     5
 72
     6
 73
    -7
  0
VERTEX
  5
5507
  8
0
 10
0.0
 20
0.0
 30
0.0
 70
   128
 71
     8
 72
    -5
 73
     7
  0
VERTEX
  5
5508
  8
0
 10
0.0
 20
0.0
 30
0.0
 70
   128
 71
     9
 72
    10
 73
   -11
  0
VERTEX
  5
5509
  8
0
 10
0.0
 20
0.0
 30
0.0
 70
   128
 71
    12
 72
    -9
 73
    11
  0
VERTEX
  5
550A
  8
0
 10
0.0
 20
0.0
 30
0.0
 70
   128
 71
    10
 72
     4
 73
    -3
  0
VERTEX
  5
550B
  8
0
 10
0.0
 20
0.0
 30
0.0
 70
   128
 71
    11
 72
   -10
 73
     3
  0
VERTEX
  5
550C
  8
0
 10
0.0
 20
0.0
 30
0.0
 70
   128
 71
     7
 72
     9
 73
   -12
  0
VERTEX
  5
550D
  8
0
 10
0.0
 20
0.0
 30
0.0
 70
   128
 71
     8
 72
    -7
 73
    12
  0
SEQEND
  5
5DFE
  8
0
  0
POLYLINE
  5
550E
  8
0
 66
     1
 10
0.0
 20
0.0
 30
0.0
 70
    64
 71
    42
 72
    48
  0
VERTEX
  5
550F
  8
0
 10
210.4999999999997
 20
87.99999999999993
 30
-41.99999999999972
 70
   192
  0
VERTEX
  5
5510
  8
0
 10
206.202882373436
 20
101.2251681765806
 30
-41.99999999999972
 70
   192
  0
VERTEX
  5
5511
  8
0
 10
194.952882373436
 20
109.3987716166409
 30
-41.99999999999972
 70
   192
  0
VERTEX
  5
5512
  8
0
 10
181.0471176265634
 20
109.3987716166409
 30
-41.99999999999972
 70
   192
  0
VERTEX
  5
5513
  8
0
 10
169.7971176265634
 20
101.2251681765806
 30
-41.99999999999972
 70
   192
  0
VERTEX
  5
5514
  8
0
 10
165.4999999999997
 20
87.99999999999993
 30
-41.99999999999972
 70
   192
  0
VERTEX
  5
5515
  8
0
 10
169.7971176265634
 20
74.77483182341929
 30
-41.99999999999972
 70
   192
  0
VERTEX
  5
5516
  8
0
 10
181.0471176265634
 20
66.60122838335897
 30
-41.99999999999972
 70
   192
  0
VERTEX
  5
5517
  8
0
 10
194.952882373436
 20
66.60122838335897
 30
-41.99999999999972
 70
   192
  0
VERTEX
  5
5518
  8
0
 10
206.202882373436
 20
74.77483182341928
 30
-41.99999999999972
 70
   192
  0
VERTEX
  5
5519
  8
0
 10
174.9999999999997
 20
87.99999999999993
 30
-41.99999999999972
 70
   192
  0
VERTEX
  5
551A
  8
0
 10
175.8786796564401
 20
90.12132034355957
 30
-41.99999999999972
 70
   192
  0
VERTEX
  5
551B
  8
0
 10
177.9999999999997
 20
90.99999999999993
 30
-41.99999999999972
 70
   192
  0
VERTEX
  5
551C
  8
0
 10
180.1213203435593
 20
90.12132034355957
 30
-41.99999999999972
 70
   192
  0
VERTEX
  5
551D
  8
0
 10
180.9999999999997
 20
87.99999999999993
 30
-41.99999999999972
 70
   192
  0
VERTEX
  5
551E
  8
0
 10
180.1213203435593
 20
85.87867965644028
 30
-41.99999999999972
 70
   192
  0
VERTEX
  5
551F
  8
0
 10
177.9999999999997
 20
84.99999999999993
 30
-41.99999999999972
 70
   192
  0
VERTEX
  5
5520
  8
0
 10
175.8786796564401
 20
85.87867965644028
 30
-41.99999999999972
 70
   192
  0
VERTEX
  5
5521
  8
0
 10
194.9999999999997
 20
87.99999999999993
 30
-41.99999999999972
 70
   192
  0
VERTEX
  5
5522
  8
0
 10
195.8786796564401
 20
90.12132034355957
 30
-41.99999999999972
 70
   192
  0
VERTEX
  5
5523
  8
0
 10
197.9999999999997
 20
90.99999999999993
 30
-41.99999999999972
 70
   192
  0
VERTEX
  5
5524
  8
0
 10
200.1213203435594
 20
90.12132034355957
 30
-41.99999999999972
 70
   192
  0
VERTEX
  5
5525
  8
0
 10
200.9999999999997
 20
87.99999999999993
 30
-41.99999999999972
 70
   192
  0
VERTEX
  5
5526
  8
0
 10
200.1213203435594
 20
85.87867965644028
 30
-41.99999999999972
 70
   192
  0
VERTEX
  5
5527
  8
0
 10
197.9999999999997
 20
84.99999999999993
 30
-41.99999999999972
 70
   192
  0
VERTEX
  5
5528
  8
0
 10
195.8786796564401
 20
85.87867965644028
 30
-41.99999999999972
 70
   192
  0
VERTEX
  5
5529
  8
0
 10
185.4999999999997
 20
87.99999999999993
 30
-41.99999999999972
 70
   192
  0
VERTEX
  5
552A
  8
0
 10
186.2322330470333
 20
89.76776695296633
 30
-41.99999999999972
 70
   192
  0
VERTEX
  5
552B
  8
0
 10
187.9999999999997
 20
90.49999999999996
 30
-41.99999999999972
 70
   192
  0
VERTEX
  5
552C
  8
0
 10
189.7677669529661
 20
89.76776695296633
 30
-41.99999999999972
 70
   192
  0
VERTEX
  5
552D
  8
0
 10
190.4999999999997
 20
87.99999999999993
 30
-41.99999999999972
 70
   192
  0
VERTEX
  5
552E
  8
0
 10
189.7677669529661
 20
86.23223304703353
 30
-41.99999999999972
 70
   192
  0
VERTEX
  5
552F
  8
0
 10
187.9999999999997
 20
85.4999999999999
 30
-41.99999999999972
 70
   192
  0
VERTEX
  5
5530
  8
0
 10
186.2322330470333
 20
86.23223304703355
 30
-41.99999999999972
 70
   192
  0
VERTEX
  5
5531
  8
0
 10
189.9999999999997
 20
102.9999999999999
 30
-41.99999999999972
 70
   192
  0
VERTEX
  5
5532
  8
0
 10
189.4142135623728
 20
101.5857864376268
 30
-41.99999999999972
 70
   192
  0
VERTEX
  5
5533
  8
0
 10
187.9999999999997
 20
100.9999999999999
 30
-41.99999999999972
 70
   192
  0
VERTEX
  5
5534
  8
0
 10
186.5857864376266
 20
101.5857864376268
 30
-41.99999999999972
 70
   192
  0
VERTEX
  5
5535
  8
0
 10
185.9999999999997
 20
102.9999999999999
 30
-41.99999999999972
 70
   192
  0
VERTEX
  5
5536
  8
0
 10
186.5857864376266
 20
104.414213562373
 30
-41.99999999999972
 70
   192
  0
VERTEX
  5
5537
  8
0
 10
187.9999999999997
 20
104.9999999999999
 30
-41.99999999999972
 70
   192
  0
VERTEX
  5
5538
  8
0
 10
189.4142135623728
 20
104.414213562373
 30
-41.99999999999972
 70
   192
  0
VERTEX
  5
5539
  8
0
 10
0.0
 20
0.0
 30
0.0
 70
   128
 71
   -19
 72
    31
 73
   -32
  0
VERTEX
  5
553A
  8
0
 10
0.0
 20
0.0
 30
0.0
 70
   128
 71
    26
 72
   -19
 73
   -32
  0
VERTEX
  5
553B
  8
0
 10
0.0
 20
0.0
 30
0.0
 70
   128
 71
    32
 72
   -33
 73
   -26
  0
VERTEX
  5
553C
  8
0
 10
0.0
 20
0.0
 30
0.0
 70
   128
 71
    -8
 72
   -26
 73
   -33
  0
VERTEX
  5
553D
  8
0
 10
0.0
 20
0.0
 30
0.0
 70
   128
 71
     7
 72
    -8
 73
   -33
  0
VERTEX
  5
553E
  8
0
 10
0.0
 20
0.0
 30
0.0
 70
   128
 71
    33
 72
   -34
 73
    -7
  0
VERTEX
  5
553F
  8
0
 10
0.0
 20
0.0
 30
0.0
 70
   128
 71
   -27
 72
    15
 73
   -16
  0
VERTEX
  5
5540
  8
0
 10
0.0
 20
0.0
 30
0.0
 70
   128
 71
    34
 72
   -27
 73
   -16
  0
VERTEX
  5
5541
  8
0
 10
0.0
 20
0.0
 30
0.0
 70
   128
 71
    16
 72
   -17
 73
   -34
  0
VERTEX
  5
5542
  8
0
 10
0.0
 20
0.0
 30
0.0
 70
   128
 71
    -7
 72
   -34
 73
   -17
  0
VERTEX
  5
5543
  8
0
 10
0.0
 20
0.0
 30
0.0
 70
   128
 71
   -17
 72
     6
 73
    -7
  0
VERTEX
  5
5544
  8
0
 10
0.0
 20
0.0
 30
0.0
 70
   128
 71
    17
 72
   -18
 73
    -6
  0
VERTEX
  5
5545
  8
0
 10
0.0
 20
0.0
 30
0.0
 70
   128
 71
    18
 72
   -11
 73
    -6
  0
VERTEX
  5
5546
  8
0
 10
0.0
 20
0.0
 30
0.0
 70
   128
 71
    -6
 72
    11
 73
   -12
  0
VERTEX
  5
5547
  8
0
 10
0.0
 20
0.0
 30
0.0
 70
   128
 71
    12
 72
   -13
 73
    -6
  0
VERTEX
  5
5548
  8
0
 10
0.0
 20
0.0
 30
0.0
 70
   128
 71
     5
 72
    -6
 73
   -13
  0
VERTEX
  5
5549
  8
0
 10
0.0
 20
0.0
 30
0.0
 70
   128
 71
   -13
 72
   -28
 73
    -5
  0
VERTEX
  5
554A
  8
0
 10
0.0
 20
0.0
 30
0.0
 70
   128
 71
    13
 72
   -14
 73
   -28
  0
VERTEX
  5
554B
  8
0
 10
0.0
 20
0.0
 30
0.0
 70
   128
 71
   -15
 72
    27
 73
   -28
  0
VERTEX
  5
554C
  8
0
 10
0.0
 20
0.0
 30
0.0
 70
   128
 71
    14
 72
   -15
 73
   -28
  0
VERTEX
  5
554D
  8
0
 10
0.0
 20
0.0
 30
0.0
 70
   128
 71
    28
 72
   -29
 73
    -5
  0
VERTEX
  5
554E
  8
0
 10
0.0
 20
0.0
 30
0.0
 70
   128
 71
   -20
 72
    37
 73
   -38
  0
VERTEX
  5
554F
  8
0
 10
0.0
 20
0.0
 30
0.0
 70
   128
 71
   -29
 72
   -20
 73
   -38
  0
VERTEX
  5
5550
  8
0
 10
0.0
 20
0.0
 30
0.0
 70
   128
 71
     4
 72
    -5
 73
   -29
  0
VERTEX
  5
5551
  8
0
 10
0.0
 20
0.0
 30
0.0
 70
   128
 71
   -39
 72
    -4
 73
   -29
  0
VERTEX
  5
5552
  8
0
 10
0.0
 20
0.0
 30
0.0
 70
   128
 71
    38
 72
   -39
 73
   -29
  0
VERTEX
  5
5553
  8
0
 10
0.0
 20
0.0
 30
0.0
 70
   128
 71
    39
 72
   -40
 73
    -4
  0
VERTEX
  5
5554
  8
0
 10
0.0
 20
0.0
 30
0.0
 70
   128
 71
   -41
 72
     3
 73
    -4
  0
VERTEX
  5
5555
  8
0
 10
0.0
 20
0.0
 30
0.0
 70
   128
 71
    40
 72
   -41
 73
    -4
  0
VERTEX
  5
5556
  8
0
 10
0.0
 20
0.0
 30
0.0
 70
   128
 71
    41
 72
   -42
 73
    -3
  0
VERTEX
  5
5557
  8
0
 10
0.0
 20
0.0
 30
0.0
 70
   128
 71
    42
 72
   -35
 73
    -3
  0
VERTEX
  5
5558
  8
0
 10
0.0
 20
0.0
 30
0.0
 70
   128
 71
    29
 72
   -30
 73
   -20
  0
VERTEX
  5
5559
  8
0
 10
0.0
 20
0.0
 30
0.0
 70
   128
 71
   -31
 72
    19
 73
   -20
  0
VERTEX
  5
555A
  8
0
 10
0.0
 20
0.0
 30
0.0
 70
   128
 71
    30
 72
   -31
 73
   -20
  0
VERTEX
  5
555B
  8
0
 10
0.0
 20
0.0
 30
0.0
 70
   128
 71
    -3
 72
    35
 73
   -36
  0
VERTEX
  5
555C
  8
0
 10
0.0
 20
0.0
 30
0.0
 70
   128
 71
     2
 72
    -3
 73
   -36
  0
VERTEX
  5
555D
  8
0
 10
0.0
 20
0.0
 30
0.0
 70
   128
 71
   -21
 72
    -2
 73
   -36
  0
VERTEX
  5
555E
  8
0
 10
0.0
 20
0.0
 30
0.0
 70
   128
 71
   -37
 72
    20
 73
   -21
  0
VERTEX
  5
555F
  8
0
 10
0.0
 20
0.0
 30
0.0
 70
   128
 71
    36
 72
   -37
 73
   -21
  0
VERTEX
  5
5560
  8
0
 10
0.0
 20
0.0
 30
0.0
 70
   128
 71
   -22
 72
     1
 73
    -2
  0
VERTEX
  5
5561
  8
0
 10
0.0
 20
0.0
 30
0.0
 70
   128
 71
    21
 72
   -22
 73
    -2
  0
VERTEX
  5
5562
  8
0
 10
0.0
 20
0.0
 30
0.0
 70
   128
 71
    22
 72
   -23
 73
    -1
  0
VERTEX
  5
5563
  8
0
 10
0.0
 20
0.0
 30
0.0
 70
   128
 71
    23
 72
   -24
 73
    -1
  0
VERTEX
  5
5564
  8
0
 10
0.0
 20
0.0
 30
0.0
 70
   128
 71
   -25
 72
    10
 73
    -1
  0
VERTEX
  5
5565
  8
0
 10
0.0
 20
0.0
 30
0.0
 70
   128
 71
    24
 72
   -25
 73
    -1
  0
VERTEX
  5
5566
  8
0
 10
0.0
 20
0.0
 30
0.0
 70
   128
 71
     8
 72
     9
 73
   -10
  0
VERTEX
  5
5567
  8
0
 10
0.0
 20
0.0
 30
0.0
 70
   128
 71
   -26
 72
    -8
 73
   -10
  0
VERTEX
  5
5568
  8
0
 10
0.0
 20
0.0
 30
0.0
 70
   128
 71
    25
 72
   -26
 73
   -10
  0
SEQEND
  5
5DFF
  8
0
  0
POLYLINE
  5
5569
  8
0
 66
     1
 10
0.0
 20
0.0
 30
0.0
 70
    64
 71
    12
 72
    10
  0
VERTEX
  5
556A
  8
0
 10
169.7971176265634
 20
74.77483182341929
 30
-43.99999999999972
 70
   192
  0
VERTEX
  5
556B
  8
0
 10
165.4999999999997
 20
87.99999999999993
 30
-43.99999999999972
 70
   192
  0
VERTEX
  5
556C
  8
0
 10
165.4999999999997
 20
87.99999999999993
 30
-73.99999999999972
 70
   192
  0
VERTEX
  5
556D
  8
0
 10
169.7971176265634
 20
74.77483182341929
 30
-73.99999999999972
 70
   192
  0
VERTEX
  5
556E
  8
0
 10
206.202882373436
 20
74.77483182341928
 30
-73.99999999999972
 70
   192
  0
VERTEX
  5
556F
  8
0
 10
210.4999999999997
 20
87.99999999999993
 30
-73.99999999999972
 70
   192
  0
VERTEX
  5
5570
  8
0
 10
210.4999999999997
 20
87.99999999999993
 30
-43.99999999999972
 70
   192
  0
VERTEX
  5
5571
  8
0
 10
206.202882373436
 20
74.77483182341928
 30
-43.99999999999972
 70
   192
  0
VERTEX
  5
5572
  8
0
 10
181.0471176265634
 20
66.60122838335897
 30
-43.99999999999972
 70
   192
  0
VERTEX
  5
5573
  8
0
 10
181.0471176265634
 20
66.60122838335897
 30
-73.99999999999972
 70
   192
  0
VERTEX
  5
5574
  8
0
 10
194.952882373436
 20
66.60122838335897
 30
-73.99999999999972
 70
   192
  0
VERTEX
  5
5575
  8
0
 10
194.952882373436
 20
66.60122838335897
 30
-43.99999999999972
 70
   192
  0
VERTEX
  5
5576
  8
0
 10
0.0
 20
0.0
 30
0.0
 70
   128
 71
     1
 72
     2
 73
    -3
  0
VERTEX
  5
5577
  8
0
 10
0.0
 20
0.0
 30
0.0
 70
   128
 71
    -1
 72
     3
 73
     4
  0
VERTEX
  5
5578
  8
0
 10
0.0
 20
0.0
 30
0.0
 70
   128
 71
     5
 72
     6
 73
    -7
  0
VERTEX
  5
5579
  8
0
 10
0.0
 20
0.0
 30
0.0
 70
   128
 71
    -5
 72
     7
 73
     8
  0
VERTEX
  5
557A
  8
0
 10
0.0
 20
0.0
 30
0.0
 70
   128
 71
     9
 72
    10
 73
   -11
  0
VERTEX
  5
557B
  8
0
 10
0.0
 20
0.0
 30
0.0
 70
   128
 71
    -9
 72
    11
 73
    12
  0
VERTEX
  5
557C
  8
0
 10
0.0
 20
0.0
 30
0.0
 70
   128
 71
     1
 72
     4
 73
   -10
  0
VERTEX
  5
557D
  8
0
 10
0.0
 20
0.0
 30
0.0
 70
   128
 71
    -1
 72
    10
 73
     9
  0
VERTEX
  5
557E
  8
0
 10
0.0
 20
0.0
 30
0.0
 70
   128
 71
    12
 72
    11
 73
    -5
  0
VERTEX
  5
557F
  8
0
 10
0.0
 20
0.0
 30
0.0
 70
   128
 71
   -12
 72
     5
 73
     8
  0
SEQEND
  5
5E00
  8
0
  0
POLYLINE
  5
5580
  8
0
 66
     1
 10
0.0
 20
0.0
 30
0.0
 70
    64
 71
    10
 72
     8
  0
VERTEX
  5
5581
  8
0
 10
165.4999999999997
 20
87.99999999999993
 30
-73.99999999999972
 70
   192
  0
VERTEX
  5
5582
  8
0
 10
169.7971176265634
 20
74.77483182341929
 30
-73.99999999999972
 70
   192
  0
VERTEX
  5
5583
  8
0
 10
181.0471176265634
 20
66.60122838335897
 30
-73.99999999999972
 70
   192
  0
VERTEX
  5
5584
  8
0
 10
194.952882373436
 20
66.60122838335897
 30
-73.99999999999972
 70
   192
  0
VERTEX
  5
5585
  8
0
 10
206.202882373436
 20
74.77483182341928
 30
-73.99999999999972
 70
   192
  0
VERTEX
  5
5586
  8
0
 10
210.4999999999997
 20
87.99999999999993
 30
-73.99999999999972
 70
   192
  0
VERTEX
  5
5587
  8
0
 10
206.202882373436
 20
101.2251681765806
 30
-73.99999999999972
 70
   192
  0
VERTEX
  5
5588
  8
0
 10
194.952882373436
 20
109.3987716166409
 30
-73.99999999999972
 70
   192
  0
VERTEX
  5
5589
  8
0
 10
181.0471176265634
 20
109.3987716166409
 30
-73.99999999999972
 70
   192
  0
VERTEX
  5
558A
  8
0
 10
169.7971176265634
 20
101.2251681765806
 30
-73.99999999999972
 70
   192
  0
VERTEX
  5
558B
  8
0
 10
0.0
 20
0.0
 30
0.0
 70
   128
 71
     1
 72
    10
 73
    -9
  0
VERTEX
  5
558C
  8
0
 10
0.0
 20
0.0
 30
0.0
 70
   128
 71
    -1
 72
     9
 73
    -8
  0
VERTEX
  5
558D
  8
0
 10
0.0
 20
0.0
 30
0.0
 70
   128
 71
    -1
 72
     8
 73
    -7
  0
VERTEX
  5
558E
  8
0
 10
0.0
 20
0.0
 30
0.0
 70
   128
 71
    -1
 72
     7
 73
    -6
  0
VERTEX
  5
558F
  8
0
 10
0.0
 20
0.0
 30
0.0
 70
   128
 71
    -1
 72
     6
 73
    -5
  0
VERTEX
  5
5590
  8
0
 10
0.0
 20
0.0
 30
0.0
 70
   128
 71
    -1
 72
     5
 73
    -4
  0
VERTEX
  5
5591
  8
0
 10
0.0
 20
0.0
 30
0.0
 70
   128
 71
    -1
 72
     4
 73
    -3
  0
VERTEX
  5
5592
  8
0
 10
0.0
 20
0.0
 30
0.0
 70
   128
 71
    -1
 72
     3
 73
     2
  0
SEQEND
  5
5E01
  8
0
  0
POLYLINE
  5
5593
  8
0
 66
     1
 10
0.0
 20
0.0
 30
0.0
 70
    64
 71
    10
 72
     8
  0
VERTEX
  5
5594
  8
0
 10
190.4999999999997
 20
87.99999999999993
 30
-42.99999999999972
 70
   192
  0
VERTEX
  5
5595
  8
0
 10
185.4999999999997
 20
87.99999999999993
 30
-42.99999999999972
 70
   192
  0
VERTEX
  5
5596
  8
0
 10
185.4999999999997
 20
87.99999999999993
 30
-41.99999999999972
 70
   192
  0
VERTEX
  5
5597
  8
0
 10
190.4999999999997
 20
87.99999999999993
 30
-41.99999999999972
 70
   192
  0
VERTEX
  5
5598
  8
0
 10
187.9999999999997
 20
90.49999999999996
 30
-41.99999999999972
 70
   192
  0
VERTEX
  5
5599
  8
0
 10
187.9999999999997
 20
90.49999999999996
 30
-42.99999999999972
 70
   192
  0
VERTEX
  5
559A
  8
0
 10
189.7677669529661
 20
89.76776695296633
 30
-41.99999999999972
 70
   192
  0
VERTEX
  5
559B
  8
0
 10
189.7677669529661
 20
89.76776695296633
 30
-42.99999999999972
 70
   192
  0
VERTEX
  5
559C
  8
0
 10
186.2322330470333
 20
89.76776695296633
 30
-41.99999999999972
 70
   192
  0
VERTEX
  5
559D
  8
0
 10
186.2322330470333
 20
89.76776695296633
 30
-42.99999999999972
 70
   192
  0
VERTEX
  5
559E
  8
0
 10
0.0
 20
0.0
 30
0.0
 70
   128
 71
     8
 72
     1
 73
    -4
  0
VERTEX
  5
559F
  8
0
 10
0.0
 20
0.0
 30
0.0
 70
   128
 71
     7
 72
    -8
 73
     4
  0
VERTEX
  5
55A0
  8
0
 10
0.0
 20
0.0
 30
0.0
 70
   128
 71
     6
 72
     8
 73
    -7
  0
VERTEX
  5
55A1
  8
0
 10
0.0
 20
0.0
 30
0.0
 70
   128
 71
     5
 72
    -6
 73
     7
  0
VERTEX
  5
55A2
  8
0
 10
0.0
 20
0.0
 30
0.0
 70
   128
 71
    10
 72
     6
 73
    -5
  0
VERTEX
  5
55A3
  8
0
 10
0.0
 20
0.0
 30
0.0
 70
   128
 71
     9
 72
   -10
 73
     5
  0
VERTEX
  5
55A4
  8
0
 10
0.0
 20
0.0
 30
0.0
 70
   128
 71
     3
 72
     2
 73
   -10
  0
VERTEX
  5
55A5
  8
0
 10
0.0
 20
0.0
 30
0.0
 70
   128
 71
     9
 72
    -3
 73
    10
  0
SEQEND
  5
5E02
  8
0
  0
POLYLINE
  5
55A6
  8
0
 66
     1
 10
0.0
 20
0.0
 30
0.0
 70
    64
 71
     8
 72
     6
  0
VERTEX
  5
55A7
  8
0
 10
190.4999999999997
 20
87.99999999999993
 30
-42.99999999999972
 70
   192
  0
VERTEX
  5
55A8
  8
0
 10
189.7677669529661
 20
89.76776695296633
 30
-42.99999999999972
 70
   192
  0
VERTEX
  5
55A9
  8
0
 10
187.9999999999997
 20
90.49999999999996
 30
-42.99999999999972
 70
   192
  0
VERTEX
  5
55AA
  8
0
 10
186.2322330470333
 20
89.76776695296633
 30
-42.99999999999972
 70
   192
  0
VERTEX
  5
55AB
  8
0
 10
185.4999999999997
 20
87.99999999999993
 30
-42.99999999999972
 70
   192
  0
VERTEX
  5
55AC
  8
0
 10
186.2322330470333
 20
86.23223304703355
 30
-42.99999999999972
 70
   192
  0
VERTEX
  5
55AD
  8
0
 10
187.9999999999997
 20
85.4999999999999
 30
-42.99999999999972
 70
   192
  0
VERTEX
  5
55AE
  8
0
 10
189.7677669529661
 20
86.23223304703353
 30
-42.99999999999972
 70
   192
  0
VERTEX
  5
55AF
  8
0
 10
0.0
 20
0.0
 30
0.0
 70
   128
 71
     7
 72
     8
 73
    -1
  0
VERTEX
  5
55B0
  8
0
 10
0.0
 20
0.0
 30
0.0
 70
   128
 71
     6
 72
    -7
 73
    -1
  0
VERTEX
  5
55B1
  8
0
 10
0.0
 20
0.0
 30
0.0
 70
   128
 71
     5
 72
    -6
 73
    -1
  0
VERTEX
  5
55B2
  8
0
 10
0.0
 20
0.0
 30
0.0
 70
   128
 71
     4
 72
    -5
 73
    -1
  0
VERTEX
  5
55B3
  8
0
 10
0.0
 20
0.0
 30
0.0
 70
   128
 71
     3
 72
    -4
 73
    -1
  0
VERTEX
  5
55B4
  8
0
 10
0.0
 20
0.0
 30
0.0
 70
   128
 71
     2
 72
    -3
 73
     1
  0
SEQEND
  5
5E03
  8
0
  0
POLYLINE
  5
55B5
  8
0
 66
     1
 10
0.0
 20
0.0
 30
0.0
 70
    64
 71
    10
 72
     8
  0
VERTEX
  5
55B6
  8
0
 10
200.9999999999997
 20
87.99999999999993
 30
-42.99999999999972
 70
   192
  0
VERTEX
  5
55B7
  8
0
 10
194.9999999999997
 20
87.99999999999993
 30
-42.99999999999972
 70
   192
  0
VERTEX
  5
55B8
  8
0
 10
194.9999999999997
 20
87.99999999999993
 30
-41.99999999999972
 70
   192
  0
VERTEX
  5
55B9
  8
0
 10
200.9999999999997
 20
87.99999999999993
 30
-41.99999999999972
 70
   192
  0
VERTEX
  5
55BA
  8
0
 10
197.9999999999997
 20
90.99999999999993
 30
-41.99999999999972
 70
   192
  0
VERTEX
  5
55BB
  8
0
 10
197.9999999999997
 20
90.99999999999993
 30
-42.99999999999972
 70
   192
  0
VERTEX
  5
55BC
  8
0
 10
200.1213203435594
 20
90.12132034355957
 30
-41.99999999999972
 70
   192
  0
VERTEX
  5
55BD
  8
0
 10
200.1213203435594
 20
90.12132034355957
 30
-42.99999999999972
 70
   192
  0
VERTEX
  5
55BE
  8
0
 10
195.8786796564401
 20
90.12132034355957
 30
-41.99999999999972
 70
   192
  0
VERTEX
  5
55BF
  8
0
 10
195.8786796564401
 20
90.12132034355957
 30
-42.99999999999972
 70
   192
  0
VERTEX
  5
55C0
  8
0
 10
0.0
 20
0.0
 30
0.0
 70
   128
 71
     8
 72
     1
 73
    -4
  0
VERTEX
  5
55C1
  8
0
 10
0.0
 20
0.0
 30
0.0
 70
   128
 71
     7
 72
    -8
 73
     4
  0
VERTEX
  5
55C2
  8
0
 10
0.0
 20
0.0
 30
0.0
 70
   128
 71
     6
 72
     8
 73
    -7
  0
VERTEX
  5
55C3
  8
0
 10
0.0
 20
0.0
 30
0.0
 70
   128
 71
     5
 72
    -6
 73
     7
  0
VERTEX
  5
55C4
  8
0
 10
0.0
 20
0.0
 30
0.0
 70
   128
 71
    10
 72
     6
 73
    -5
  0
VERTEX
  5
55C5
  8
0
 10
0.0
 20
0.0
 30
0.0
 70
   128
 71
     9
 72
   -10
 73
     5
  0
VERTEX
  5
55C6
  8
0
 10
0.0
 20
0.0
 30
0.0
 70
   128
 71
     3
 72
     2
 73
   -10
  0
VERTEX
  5
55C7
  8
0
 10
0.0
 20
0.0
 30
0.0
 70
   128
 71
     9
 72
    -3
 73
    10
  0
SEQEND
  5
5E04
  8
0
  0
POLYLINE
  5
55C8
  8
0
 66
     1
 10
0.0
 20
0.0
 30
0.0
 70
    64
 71
     8
 72
     6
  0
VERTEX
  5
55C9
  8
0
 10
200.9999999999997
 20
87.99999999999993
 30
-42.99999999999972
 70
   192
  0
VERTEX
  5
55CA
  8
0
 10
200.1213203435594
 20
90.12132034355957
 30
-42.99999999999972
 70
   192
  0
VERTEX
  5
55CB
  8
0
 10
197.9999999999997
 20
90.99999999999993
 30
-42.99999999999972
 70
   192
  0
VERTEX
  5
55CC
  8
0
 10
195.8786796564401
 20
90.12132034355957
 30
-42.99999999999972
 70
   192
  0
VERTEX
  5
55CD
  8
0
 10
194.9999999999997
 20
87.99999999999993
 30
-42.99999999999972
 70
   192
  0
VERTEX
  5
55CE
  8
0
 10
195.8786796564401
 20
85.87867965644028
 30
-42.99999999999972
 70
   192
  0
VERTEX
  5
55CF
  8
0
 10
197.9999999999997
 20
84.99999999999993
 30
-42.99999999999972
 70
   192
  0
VERTEX
  5
55D0
  8
0
 10
200.1213203435594
 20
85.87867965644028
 30
-42.99999999999972
 70
   192
  0
VERTEX
  5
55D1
  8
0
 10
0.0
 20
0.0
 30
0.0
 70
   128
 71
     7
 72
     8
 73
    -1
  0
VERTEX
  5
55D2
  8
0
 10
0.0
 20
0.0
 30
0.0
 70
   128
 71
     6
 72
    -7
 73
    -1
  0
VERTEX
  5
55D3
  8
0
 10
0.0
 20
0.0
 30
0.0
 70
   128
 71
     5
 72
    -6
 73
    -1
  0
VERTEX
  5
55D4
  8
0
 10
0.0
 20
0.0
 30
0.0
 70
   128
 71
     4
 72
    -5
 73
    -1
  0
VERTEX
  5
55D5
  8
0
 10
0.0
 20
0.0
 30
0.0
 70
   128
 71
     3
 72
    -4
 73
    -1
  0
VERTEX
  5
55D6
  8
0
 10
0.0
 20
0.0
 30
0.0
 70
   128
 71
     2
 72
    -3
 73
     1
  0
SEQEND
  5
5E05
  8
0
  0
POLYLINE
  5
55D7
  8
0
 66
     1
 10
0.0
 20
0.0
 30
0.0
 70
    64
 71
    10
 72
     8
  0
VERTEX
  5
55D8
  8
0
 10
180.9999999999997
 20
87.99999999999993
 30
-42.99999999999972
 70
   192
  0
VERTEX
  5
55D9
  8
0
 10
174.9999999999997
 20
87.99999999999993
 30
-42.99999999999972
 70
   192
  0
VERTEX
  5
55DA
  8
0
 10
174.9999999999997
 20
87.99999999999993
 30
-41.99999999999972
 70
   192
  0
VERTEX
  5
55DB
  8
0
 10
180.9999999999997
 20
87.99999999999993
 30
-41.99999999999972
 70
   192
  0
VERTEX
  5
55DC
  8
0
 10
177.9999999999997
 20
90.99999999999993
 30
-41.99999999999972
 70
   192
  0
VERTEX
  5
55DD
  8
0
 10
177.9999999999997
 20
90.99999999999993
 30
-42.99999999999972
 70
   192
  0
VERTEX
  5
55DE
  8
0
 10
180.1213203435593
 20
90.12132034355957
 30
-41.99999999999972
 70
   192
  0
VERTEX
  5
55DF
  8
0
 10
180.1213203435593
 20
90.12132034355957
 30
-42.99999999999972
 70
   192
  0
VERTEX
  5
55E0
  8
0
 10
175.8786796564401
 20
90.12132034355957
 30
-41.99999999999972
 70
   192
  0
VERTEX
  5
55E1
  8
0
 10
175.8786796564401
 20
90.12132034355957
 30
-42.99999999999972
 70
   192
  0
VERTEX
  5
55E2
  8
0
 10
0.0
 20
0.0
 30
0.0
 70
   128
 71
     8
 72
     1
 73
    -4
  0
VERTEX
  5
55E3
  8
0
 10
0.0
 20
0.0
 30
0.0
 70
   128
 71
     7
 72
    -8
 73
     4
  0
VERTEX
  5
55E4
  8
0
 10
0.0
 20
0.0
 30
0.0
 70
   128
 71
     6
 72
     8
 73
    -7
  0
VERTEX
  5
55E5
  8
0
 10
0.0
 20
0.0
 30
0.0
 70
   128
 71
     5
 72
    -6
 73
     7
  0
VERTEX
  5
55E6
  8
0
 10
0.0
 20
0.0
 30
0.0
 70
   128
 71
    10
 72
     6
 73
    -5
  0
VERTEX
  5
55E7
  8
0
 10
0.0
 20
0.0
 30
0.0
 70
   128
 71
     9
 72
   -10
 73
     5
  0
VERTEX
  5
55E8
  8
0
 10
0.0
 20
0.0
 30
0.0
 70
   128
 71
     3
 72
     2
 73
   -10
  0
VERTEX
  5
55E9
  8
0
 10
0.0
 20
0.0
 30
0.0
 70
   128
 71
     9
 72
    -3
 73
    10
  0
SEQEND
  5
5E06
  8
0
  0
POLYLINE
  5
55EA
  8
0
 66
     1
 10
0.0
 20
0.0
 30
0.0
 70
    64
 71
     8
 72
     6
  0
VERTEX
  5
55EB
  8
0
 10
180.9999999999997
 20
87.99999999999993
 30
-42.99999999999972
 70
   192
  0
VERTEX
  5
55EC
  8
0
 10
180.1213203435593
 20
90.12132034355957
 30
-42.99999999999972
 70
   192
  0
VERTEX
  5
55ED
  8
0
 10
177.9999999999997
 20
90.99999999999993
 30
-42.99999999999972
 70
   192
  0
VERTEX
  5
55EE
  8
0
 10
175.8786796564401
 20
90.12132034355957
 30
-42.99999999999972
 70
   192
  0
VERTEX
  5
55EF
  8
0
 10
174.9999999999997
 20
87.99999999999993
 30
-42.99999999999972
 70
   192
  0
VERTEX
  5
55F0
  8
0
 10
175.8786796564401
 20
85.87867965644028
 30
-42.99999999999972
 70
   192
  0
VERTEX
  5
55F1
  8
0
 10
177.9999999999997
 20
84.99999999999993
 30
-42.99999999999972
 70
   192
  0
VERTEX
  5
55F2
  8
0
 10
180.1213203435593
 20
85.87867965644028
 30
-42.99999999999972
 70
   192
  0
VERTEX
  5
55F3
  8
0
 10
0.0
 20
0.0
 30
0.0
 70
   128
 71
     7
 72
     8
 73
    -1
  0
VERTEX
  5
55F4
  8
0
 10
0.0
 20
0.0
 30
0.0
 70
   128
 71
     6
 72
    -7
 73
    -1
  0
VERTEX
  5
55F5
  8
0
 10
0.0
 20
0.0
 30
0.0
 70
   128
 71
     5
 72
    -6
 73
    -1
  0
VERTEX
  5
55F6
  8
0
 10
0.0
 20
0.0
 30
0.0
 70
   128
 71
     4
 72
    -5
 73
    -1
  0
VERTEX
  5
55F7
  8
0
 10
0.0
 20
0.0
 30
0.0
 70
   128
 71
     3
 72
    -4
 73
    -1
  0
VERTEX
  5
55F8
  8
0
 10
0.0
 20
0.0
 30
0.0
 70
   128
 71
     2
 72
    -3
 73
     1
  0
SEQEND
  5
5E07
  8
0
  0
POLYLINE
  5
55F9
  8
0
 66
     1
 10
0.0
 20
0.0
 30
0.0
 70
    64
 71
    10
 72
     8
  0
VERTEX
  5
55FA
  8
0
 10
189.9999999999997
 20
102.9999999999999
 30
-38.99999999999972
 70
   192
  0
VERTEX
  5
55FB
  8
0
 10
185.9999999999997
 20
102.9999999999999
 30
-38.99999999999972
 70
   192
  0
VERTEX
  5
55FC
  8
0
 10
185.9999999999997
 20
102.9999999999999
 30
-41.99999999999972
 70
   192
  0
VERTEX
  5
55FD
  8
0
 10
189.9999999999997
 20
102.9999999999999
 30
-41.99999999999972
 70
   192
  0
VERTEX
  5
55FE
  8
0
 10
187.9999999999997
 20
100.9999999999999
 30
-41.99999999999972
 70
   192
  0
VERTEX
  5
55FF
  8
0
 10
187.9999999999997
 20
100.9999999999999
 30
-38.99999999999972
 70
   192
  0
VERTEX
  5
5600
  8
0
 10
189.4142135623728
 20
101.5857864376268
 30
-41.99999999999972
 70
   192
  0
VERTEX
  5
5601
  8
0
 10
189.4142135623728
 20
101.5857864376268
 30
-38.99999999999972
 70
   192
  0
VERTEX
  5
5602
  8
0
 10
186.5857864376266
 20
101.5857864376268
 30
-41.99999999999972
 70
   192
  0
VERTEX
  5
5603
  8
0
 10
186.5857864376266
 20
101.5857864376268
 30
-38.99999999999972
 70
   192
  0
VERTEX
  5
5604
  8
0
 10
0.0
 20
0.0
 30
0.0
 70
   128
 71
     8
 72
     7
 73
    -4
  0
VERTEX
  5
5605
  8
0
 10
0.0
 20
0.0
 30
0.0
 70
   128
 71
    -8
 72
     4
 73
     1
  0
VERTEX
  5
5606
  8
0
 10
0.0
 20
0.0
 30
0.0
 70
   128
 71
     6
 72
     5
 73
    -7
  0
VERTEX
  5
5607
  8
0
 10
0.0
 20
0.0
 30
0.0
 70
   128
 71
    -6
 72
     7
 73
     8
  0
VERTEX
  5
5608
  8
0
 10
0.0
 20
0.0
 30
0.0
 70
   128
 71
    10
 72
     9
 73
    -5
  0
VERTEX
  5
5609
  8
0
 10
0.0
 20
0.0
 30
0.0
 70
   128
 71
   -10
 72
     5
 73
     6
  0
VERTEX
  5
560A
  8
0
 10
0.0
 20
0.0
 30
0.0
 70
   128
 71
     2
 72
     3
 73
    -9
  0
VERTEX
  5
560B
  8
0
 10
0.0
 20
0.0
 30
0.0
 70
   128
 71
    -2
 72
     9
 73
    10
  0
SEQEND
  5
5E08
  8
0
  0
POLYLINE
  5
560C
  8
0
 66
     1
 10
0.0
 20
0.0
 30
0.0
 70
    64
 71
     8
 72
     6
  0
VERTEX
  5
560D
  8
0
 10
185.9999999999997
 20
102.9999999999999
 30
-38.99999999999972
 70
   192
  0
VERTEX
  5
560E
  8
0
 10
186.5857864376266
 20
101.5857864376268
 30
-38.99999999999972
 70
   192
  0
VERTEX
  5
560F
  8
0
 10
187.9999999999997
 20
100.9999999999999
 30
-38.99999999999972
 70
   192
  0
VERTEX
  5
5610
  8
0
 10
189.4142135623728
 20
101.5857864376268
 30
-38.99999999999972
 70
   192
  0
VERTEX
  5
5611
  8
0
 10
189.9999999999997
 20
102.9999999999999
 30
-38.99999999999972
 70
   192
  0
VERTEX
  5
5612
  8
0
 10
189.4142135623728
 20
104.414213562373
 30
-38.99999999999972
 70
   192
  0
VERTEX
  5
5613
  8
0
 10
187.9999999999997
 20
104.9999999999999
 30
-38.99999999999972
 70
   192
  0
VERTEX
  5
5614
  8
0
 10
186.5857864376266
 20
104.414213562373
 30
-38.99999999999972
 70
   192
  0
VERTEX
  5
5615
  8
0
 10
0.0
 20
0.0
 30
0.0
 70
   128
 71
     7
 72
     8
 73
    -1
  0
VERTEX
  5
5616
  8
0
 10
0.0
 20
0.0
 30
0.0
 70
   128
 71
     6
 72
    -7
 73
    -1
  0
VERTEX
  5
5617
  8
0
 10
0.0
 20
0.0
 30
0.0
 70
   128
 71
     5
 72
    -6
 73
    -1
  0
VERTEX
  5
5618
  8
0
 10
0.0
 20
0.0
 30
0.0
 70
   128
 71
     4
 72
    -5
 73
    -1
  0
VERTEX
  5
5619
  8
0
 10
0.0
 20
0.0
 30
0.0
 70
   128
 71
     3
 72
    -4
 73
    -1
  0
VERTEX
  5
561A
  8
0
 10
0.0
 20
0.0
 30
0.0
 70
   128
 71
     2
 72
    -3
 73
     1
  0
SEQEND
  5
5E09
  8
0
  0
ENDBLK
  5
5DF1
  8
0
  0
BLOCK
  8
0
  2
*X10
 70
     1
 10
0.0
 20
0.0
 30
0.0
  3
*X10
  1

  0
POLYLINE
  5
561C
  8
0
 66
     1
 10
0.0
 20
0.0
 30
0.0
 70
    64
 71
     4
 72
     2
  0
VERTEX
  5
561D
  8
0
 10
-586.0
 20
682.0
 30
-61.99999999999983
 70
   192
  0
VERTEX
  5
561E
  8
0
 10
-586.0
 20
682.0
 30
-1.999999999999828
 70
   192
  0
VERTEX
  5
561F
  8
0
 10
-586.0000000000001
 20
647.0000000000001
 30
-1.999999999999957
 70
   192
  0
VERTEX
  5
5620
  8
0
 10
-586.0
 20
622.0000000000001
 30
-61.99999999999983
 70
   192
  0
VERTEX
  5
5621
  8
0
 10
0.0
 20
0.0
 30
0.0
 70
   128
 71
     1
 72
     4
 73
    -3
  0
VERTEX
  5
5622
  8
0
 10
0.0
 20
0.0
 30
0.0
 70
   128
 71
    -1
 72
     3
 73
     2
  0
SEQEND
  5
5E0C
  8
0
  0
POLYLINE
  5
5623
  8
0
 66
     1
 10
0.0
 20
0.0
 30
0.0
 70
    64
 71
     4
 72
     2
  0
VERTEX
  5
5624
  8
0
 10
-566.0
 20
682.0
 30
-1.999999999999828
 70
   192
  0
VERTEX
  5
5625
  8
0
 10
-566.0
 20
682.0
 30
-61.99999999999983
 70
   192
  0
VERTEX
  5
5626
  8
0
 10
-566.0
 20
622.0
 30
-61.99999999999982
 70
   192
  0
VERTEX
  5
5627
  8
0
 10
-566.0
 20
647.0000000000001
 30
-1.999999999999828
 70
   192
  0
VERTEX
  5
5628
  8
0
 10
0.0
 20
0.0
 30
0.0
 70
   128
 71
     1
 72
     4
 73
    -3
  0
VERTEX
  5
5629
  8
0
 10
0.0
 20
0.0
 30
0.0
 70
   128
 71
    -1
 72
     3
 73
     2
  0
SEQEND
  5
5E0D
  8
0
  0
POLYLINE
  5
562A
  8
0
 66
     1
 10
0.0
 20
0.0
 30
0.0
 70
    64
 71
     4
 72
     2
  0
VERTEX
  5
562B
  8
0
 10
-566.0
 20
682.0
 30
-61.99999999999983
 70
   192
  0
VERTEX
  5
562C
  8
0
 10
-566.0
 20
682.0
 30
-1.999999999999828
 70
   192
  0
VERTEX
  5
562D
  8
0
 10
-586.0
 20
682.0
 30
-1.999999999999828
 70
   192
  0
VERTEX
  5
562E
  8
0
 10
-586.0
 20
682.0
 30
-61.99999999999983
 70
   192
  0
VERTEX
  5
562F
  8
0
 10
0.0
 20
0.0
 30
0.0
 70
   128
 71
     1
 72
     4
 73
    -3
  0
VERTEX
  5
5630
  8
0
 10
0.0
 20
0.0
 30
0.0
 70
   128
 71
    -1
 72
     3
 73
     2
  0
SEQEND
  5
5E0E
  8
0
  0
POLYLINE
  5
5631
  8
0
 66
     1
 10
0.0
 20
0.0
 30
0.0
 70
    64
 71
     4
 72
     2
  0
VERTEX
  5
5632
  8
0
 10
-586.0000000000001
 20
647.0000000000001
 30
-1.999999999999946
 70
   192
  0
VERTEX
  5
5633
  8
0
 10
-566.0
 20
647.0000000000001
 30
-1.999999999999946
 70
   192
  0
VERTEX
  5
5634
  8
0
 10
-566.0
 20
682.0
 30
-1.999999999999828
 70
   192
  0
VERTEX
  5
5635
  8
0
 10
-586.0
 20
682.0
 30
-1.999999999999828
 70
   192
  0
VERTEX
  5
5636
  8
0
 10
0.0
 20
0.0
 30
0.0
 70
   128
 71
     3
 72
     4
 73
    -1
  0
VERTEX
  5
5637
  8
0
 10
0.0
 20
0.0
 30
0.0
 70
   128
 71
     2
 72
    -3
 73
     1
  0
SEQEND
  5
5E0F
  8
0
  0
POLYLINE
  5
5638
  8
0
 66
     1
 10
0.0
 20
0.0
 30
0.0
 70
    64
 71
     4
 72
     2
  0
VERTEX
  5
5639
  8
0
 10
-586.0
 20
622.0000000000001
 30
-61.99999999999983
 70
   192
  0
VERTEX
  5
563A
  8
0
 10
-566.0
 20
622.0
 30
-61.99999999999983
 70
   192
  0
VERTEX
  5
563B
  8
0
 10
-566.0
 20
682.0
 30
-61.99999999999983
 70
   192
  0
VERTEX
  5
563C
  8
0
 10
-586.0
 20
682.0
 30
-61.99999999999983
 70
   192
  0
VERTEX
  5
563D
  8
0
 10
0.0
 20
0.0
 30
0.0
 70
   128
 71
     1
 72
     4
 73
    -3
  0
VERTEX
  5
563E
  8
0
 10
0.0
 20
0.0
 30
0.0
 70
   128
 71
    -1
 72
     3
 73
     2
  0
SEQEND
  5
5E10
  8
0
  0
POLYLINE
  5
563F
  8
0
 66
     1
 10
0.0
 20
0.0
 30
0.0
 70
    64
 71
     4
 72
     2
  0
VERTEX
  5
5640
  8
0
 10
-566.0
 20
647.0000000000001
 30
-1.999999999999943
 70
   192
  0
VERTEX
  5
5641
  8
0
 10
-566.0
 20
622.0
 30
-61.99999999999983
 70
   192
  0
VERTEX
  5
5642
  8
0
 10
-586.0000000000001
 20
622.0
 30
-61.99999999999979
 70
   192
  0
VERTEX
  5
5643
  8
0
 10
-586.0000000000001
 20
647.0000000000001
 30
-1.999999999999946
 70
   192
  0
VERTEX
  5
5644
  8
0
 10
0.0
 20
0.0
 30
0.0
 70
   128
 71
     1
 72
     4
 73
    -3
  0
VERTEX
  5
5645
  8
0
 10
0.0
 20
0.0
 30
0.0
 70
   128
 71
    -1
 72
     3
 73
     2
  0
SEQEND
  5
5E11
  8
0
  0
ENDBLK
  5
5E0B
  8
0
  0
BLOCK
  8
0
  2
*X11
 70
     1
 10
0.0
 20
0.0
 30
0.0
  3
*X11
  1

  0
POLYLINE
  5
5647
  8
0
 66
     1
 10
0.0
 20
0.0
 30
0.0
 70
    64
 71
     4
 72
     2
  0
VERTEX
  5
5648
  8
0
 10
-287.9999999999996
 20
682.0
 30
-61.99999999999983
 70
   192
  0
VERTEX
  5
5649
  8
0
 10
-287.9999999999996
 20
682.0
 30
-1.999999999999828
 70
   192
  0
VERTEX
  5
564A
  8
0
 10
-287.9999999999996
 20
647.0000000000001
 30
-1.999999999999943
 70
   192
  0
VERTEX
  5
564B
  8
0
 10
-287.9999999999996
 20
622.0000000000001
 30
-61.99999999999983
 70
   192
  0
VERTEX
  5
564C
  8
0
 10
0.0
 20
0.0
 30
0.0
 70
   128
 71
     1
 72
     4
 73
    -3
  0
VERTEX
  5
564D
  8
0
 10
0.0
 20
0.0
 30
0.0
 70
   128
 71
    -1
 72
     3
 73
     2
  0
SEQEND
  5
5E14
  8
0
  0
POLYLINE
  5
564E
  8
0
 66
     1
 10
0.0
 20
0.0
 30
0.0
 70
    64
 71
     4
 72
     2
  0
VERTEX
  5
564F
  8
0
 10
-267.9999999999995
 20
682.0
 30
-1.999999999999828
 70
   192
  0
VERTEX
  5
5650
  8
0
 10
-267.9999999999995
 20
682.0
 30
-61.99999999999983
 70
   192
  0
VERTEX
  5
5651
  8
0
 10
-267.9999999999995
 20
622.0
 30
-61.99999999999982
 70
   192
  0
VERTEX
  5
5652
  8
0
 10
-267.9999999999995
 20
647.0000000000001
 30
-1.999999999999828
 70
   192
  0
VERTEX
  5
5653
  8
0
 10
0.0
 20
0.0
 30
0.0
 70
   128
 71
     1
 72
     4
 73
    -3
  0
VERTEX
  5
5654
  8
0
 10
0.0
 20
0.0
 30
0.0
 70
   128
 71
    -1
 72
     3
 73
     2
  0
SEQEND
  5
5E15
  8
0
  0
POLYLINE
  5
5655
  8
0
 66
     1
 10
0.0
 20
0.0
 30
0.0
 70
    64
 71
     4
 72
     2
  0
VERTEX
  5
5656
  8
0
 10
-267.9999999999995
 20
682.0
 30
-61.99999999999983
 70
   192
  0
VERTEX
  5
5657
  8
0
 10
-267.9999999999995
 20
682.0
 30
-1.999999999999828
 70
   192
  0
VERTEX
  5
5658
  8
0
 10
-287.9999999999996
 20
682.0
 30
-1.999999999999828
 70
   192
  0
VERTEX
  5
5659
  8
0
 10
-287.9999999999996
 20
682.0
 30
-61.99999999999983
 70
   192
  0
VERTEX
  5
565A
  8
0
 10
0.0
 20
0.0
 30
0.0
 70
   128
 71
     1
 72
     4
 73
    -3
  0
VERTEX
  5
565B
  8
0
 10
0.0
 20
0.0
 30
0.0
 70
   128
 71
    -1
 72
     3
 73
     2
  0
SEQEND
  5
5E16
  8
0
  0
POLYLINE
  5
565C
  8
0
 66
     1
 10
0.0
 20
0.0
 30
0.0
 70
    64
 71
     4
 72
     2
  0
VERTEX
  5
565D
  8
0
 10
-287.9999999999995
 20
647.0000000000001
 30
-1.999999999999946
 70
   192
  0
VERTEX
  5
565E
  8
0
 10
-267.9999999999995
 20
647.0000000000001
 30
-1.999999999999946
 70
   192
  0
VERTEX
  5
565F
  8
0
 10
-267.9999999999995
 20
682.0
 30
-1.999999999999828
 70
   192
  0
VERTEX
  5
5660
  8
0
 10
-287.9999999999996
 20
682.0
 30
-1.999999999999828
 70
   192
  0
VERTEX
  5
5661
  8
0
 10
0.0
 20
0.0
 30
0.0
 70
   128
 71
     3
 72
     4
 73
    -1
  0
VERTEX
  5
5662
  8
0
 10
0.0
 20
0.0
 30
0.0
 70
   128
 71
     2
 72
    -3
 73
     1
  0
SEQEND
  5
5E17
  8
0
  0
POLYLINE
  5
5663
  8
0
 66
     1
 10
0.0
 20
0.0
 30
0.0
 70
    64
 71
     4
 72
     2
  0
VERTEX
  5
5664
  8
0
 10
-287.9999999999996
 20
622.0000000000001
 30
-61.99999999999983
 70
   192
  0
VERTEX
  5
5665
  8
0
 10
-267.9999999999995
 20
622.0
 30
-61.99999999999983
 70
   192
  0
VERTEX
  5
5666
  8
0
 10
-267.9999999999995
 20
682.0
 30
-61.99999999999983
 70
   192
  0
VERTEX
  5
5667
  8
0
 10
-287.9999999999996
 20
682.0
 30
-61.99999999999983
 70
   192
  0
VERTEX
  5
5668
  8
0
 10
0.0
 20
0.0
 30
0.0
 70
   128
 71
     1
 72
     4
 73
    -3
  0
VERTEX
  5
5669
  8
0
 10
0.0
 20
0.0
 30
0.0
 70
   128
 71
    -1
 72
     3
 73
     2
  0
SEQEND
  5
5E18
  8
0
  0
POLYLINE
  5
566A
  8
0
 66
     1
 10
0.0
 20
0.0
 30
0.0
 70
    64
 71
     4
 72
     2
  0
VERTEX
  5
566B
  8
0
 10
-287.9999999999996
 20
622.0
 30
-61.99999999999979
 70
   192
  0
VERTEX
  5
566C
  8
0
 10
-287.9999999999995
 20
647.0000000000001
 30
-1.999999999999946
 70
   192
  0
VERTEX
  5
566D
  8
0
 10
-267.9999999999995
 20
647.0000000000001
 30
-1.999999999999943
 70
   192
  0
VERTEX
  5
566E
  8
0
 10
-267.9999999999995
 20
622.0000000000001
 30
-61.99999999999983
 70
   192
  0
VERTEX
  5
566F
  8
0
 10
0.0
 20
0.0
 30
0.0
 70
   128
 71
     1
 72
     4
 73
    -3
  0
VERTEX
  5
5670
  8
0
 10
0.0
 20
0.0
 30
0.0
 70
   128
 71
    -1
 72
     3
 73
     2
  0
SEQEND
  5
5E19
  8
0
  0
ENDBLK
  5
5E13
  8
0
  0
BLOCK
  8
0
  2
*X12
 70
     1
 10
0.0
 20
0.0
 30
0.0
  3
*X12
  1

  0
POLYLINE
  5
5672
  8
0
 66
     1
 10
0.0
 20
0.0
 30
0.0
 70
    64
 71
     4
 72
     2
  0
VERTEX
  5
5673
  8
0
 10
-305.9999999999998
 20
682.0
 30
61.99999999999965
 70
   192
  0
VERTEX
  5
5674
  8
0
 10
-305.9999999999998
 20
18.0
 30
61.99999999999964
 70
   192
  0
VERTEX
  5
5675
  8
0
 10
-305.9999999999998
 20
18.0
 30
-62.00000000000036
 70
   192
  0
VERTEX
  5
5676
  8
0
 10
-305.9999999999998
 20
682.0
 30
-62.00000000000036
 70
   192
  0
VERTEX
  5
5677
  8
0
 10
0.0
 20
0.0
 30
0.0
 70
   128
 71
     1
 72
     4
 73
    -3
  0
VERTEX
  5
5678
  8
0
 10
0.0
 20
0.0
 30
0.0
 70
   128
 71
    -1
 72
     3
 73
     2
  0
SEQEND
  5
5E1C
  8
0
  0
POLYLINE
  5
5679
  8
0
 66
     1
 10
0.0
 20
0.0
 30
0.0
 70
    64
 71
     4
 72
     2
  0
VERTEX
  5
567A
  8
0
 10
-287.9999999999996
 20
682.0
 30
61.99999999999965
 70
   192
  0
VERTEX
  5
567B
  8
0
 10
-287.9999999999996
 20
18.0
 30
61.99999999999965
 70
   192
  0
VERTEX
  5
567C
  8
0
 10
-305.9999999999998
 20
18.0
 30
61.99999999999965
 70
   192
  0
VERTEX
  5
567D
  8
0
 10
-305.9999999999998
 20
682.0
 30
61.99999999999965
 70
   192
  0
VERTEX
  5
567E
  8
0
 10
0.0
 20
0.0
 30
0.0
 70
   128
 71
     1
 72
     4
 73
    -3
  0
VERTEX
  5
567F
  8
0
 10
0.0
 20
0.0
 30
0.0
 70
   128
 71
    -1
 72
     3
 73
     2
  0
SEQEND
  5
5E1D
  8
0
  0
POLYLINE
  5
5680
  8
0
 66
     1
 10
0.0
 20
0.0
 30
0.0
 70
    64
 71
     4
 72
     2
  0
VERTEX
  5
5681
  8
0
 10
-287.9999999999998
 20
682.0
 30
-62.00000000000035
 70
   192
  0
VERTEX
  5
5682
  8
0
 10
-287.9999999999998
 20
18.0
 30
-62.00000000000035
 70
   192
  0
VERTEX
  5
5683
  8
0
 10
-287.9999999999996
 20
18.0
 30
61.99999999999965
 70
   192
  0
VERTEX
  5
5684
  8
0
 10
-287.9999999999996
 20
682.0
 30
61.99999999999965
 70
   192
  0
VERTEX
  5
5685
  8
0
 10
0.0
 20
0.0
 30
0.0
 70
   128
 71
     1
 72
     4
 73
    -3
  0
VERTEX
  5
5686
  8
0
 10
0.0
 20
0.0
 30
0.0
 70
   128
 71
    -1
 72
     3
 73
     2
  0
SEQEND
  5
5E1E
  8
0
  0
POLYLINE
  5
5687
  8
0
 66
     1
 10
0.0
 20
0.0
 30
0.0
 70
    64
 71
     4
 72
     2
  0
VERTEX
  5
5688
  8
0
 10
-305.9999999999998
 20
682.0
 30
-62.00000000000036
 70
   192
  0
VERTEX
  5
5689
  8
0
 10
-305.9999999999998
 20
18.0
 30
-62.00000000000036
 70
   192
  0
VERTEX
  5
568A
  8
0
 10
-287.9999999999998
 20
18.0
 30
-62.00000000000035
 70
   192
  0
VERTEX
  5
568B
  8
0
 10
-287.9999999999998
 20
682.0
 30
-62.00000000000035
 70
   192
  0
VERTEX
  5
568C
  8
0
 10
0.0
 20
0.0
 30
0.0
 70
   128
 71
     1
 72
     4
 73
    -3
  0
VERTEX
  5
568D
  8
0
 10
0.0
 20
0.0
 30
0.0
 70
   128
 71
    -1
 72
     3
 73
     2
  0
SEQEND
  5
5E1F
  8
0
  0
POLYLINE
  5
568E
  8
0
 66
     1
 10
0.0
 20
0.0
 30
0.0
 70
    64
 71
     4
 72
     2
  0
VERTEX
  5
568F
  8
0
 10
-305.9999999999998
 20
18.0
 30
61.99999999999965
 70
   192
  0
VERTEX
  5
5690
  8
0
 10
-287.9999999999996
 20
18.0
 30
61.99999999999965
 70
   192
  0
VERTEX
  5
5691
  8
0
 10
-287.9999999999998
 20
18.0
 30
-62.00000000000035
 70
   192
  0
VERTEX
  5
5692
  8
0
 10
-305.9999999999998
 20
18.0
 30
-62.00000000000036
 70
   192
  0
VERTEX
  5
5693
  8
0
 10
0.0
 20
0.0
 30
0.0
 70
   128
 71
     1
 72
     4
 73
    -3
  0
VERTEX
  5
5694
  8
0
 10
0.0
 20
0.0
 30
0.0
 70
   128
 71
    -1
 72
     3
 73
     2
  0
SEQEND
  5
5E20
  8
0
  0
POLYLINE
  5
5695
  8
0
 66
     1
 10
0.0
 20
0.0
 30
0.0
 70
    64
 71
     4
 72
     2
  0
VERTEX
  5
5696
  8
0
 10
-287.9999999999998
 20
682.0
 30
-62.00000000000035
 70
   192
  0
VERTEX
  5
5697
  8
0
 10
-305.9999999999998
 20
682.0
 30
-62.00000000000036
 70
   192
  0
VERTEX
  5
5698
  8
0
 10
-305.9999999999998
 20
682.0
 30
61.99999999999964
 70
   192
  0
VERTEX
  5
5699
  8
0
 10
-287.9999999999996
 20
682.0
 30
61.99999999999965
 70
   192
  0
VERTEX
  5
569A
  8
0
 10
0.0
 20
0.0
 30
0.0
 70
   128
 71
     3
 72
     4
 73
    -1
  0
VERTEX
  5
569B
  8
0
 10
0.0
 20
0.0
 30
0.0
 70
   128
 71
     2
 72
    -3
 73
     1
  0
SEQEND
  5
5E21
  8
0
  0
ENDBLK
  5
5E1B
  8
0
  0
BLOCK
  8
0
  2
*X13
 70
     1
 10
0.0
 20
0.0
 30
0.0
  3
*X13
  1

  0
POLYLINE
  5
569D
  8
0
 66
     1
 10
0.0
 20
0.0
 30
0.0
 70
    64
 71
     4
 72
     2
  0
VERTEX
  5
569E
  8
0
 10
287.9999999999998
 20
682.0
 30
-62.00000000000035
 70
   192
  0
VERTEX
  5
569F
  8
0
 10
287.9999999999998
 20
18.0
 30
-62.00000000000035
 70
   192
  0
VERTEX
  5
56A0
  8
0
 10
305.9999999999998
 20
18.0
 30
-62.00000000000036
 70
   192
  0
VERTEX
  5
56A1
  8
0
 10
305.9999999999998
 20
682.0
 30
-62.00000000000036
 70
   192
  0
VERTEX
  5
56A2
  8
0
 10
0.0
 20
0.0
 30
0.0
 70
   128
 71
     1
 72
     4
 73
    -3
  0
VERTEX
  5
56A3
  8
0
 10
0.0
 20
0.0
 30
0.0
 70
   128
 71
    -1
 72
     3
 73
     2
  0
SEQEND
  5
5E24
  8
0
  0
POLYLINE
  5
56A4
  8
0
 66
     1
 10
0.0
 20
0.0
 30
0.0
 70
    64
 71
     4
 72
     2
  0
VERTEX
  5
56A5
  8
0
 10
287.9999999999996
 20
682.0
 30
61.99999999999965
 70
   192
  0
VERTEX
  5
56A6
  8
0
 10
287.9999999999996
 20
18.0
 30
61.99999999999965
 70
   192
  0
VERTEX
  5
56A7
  8
0
 10
287.9999999999998
 20
18.0
 30
-62.00000000000035
 70
   192
  0
VERTEX
  5
56A8
  8
0
 10
287.9999999999998
 20
682.0
 30
-62.00000000000035
 70
   192
  0
VERTEX
  5
56A9
  8
0
 10
0.0
 20
0.0
 30
0.0
 70
   128
 71
     1
 72
     4
 73
    -3
  0
VERTEX
  5
56AA
  8
0
 10
0.0
 20
0.0
 30
0.0
 70
   128
 71
    -1
 72
     3
 73
     2
  0
SEQEND
  5
5E25
  8
0
  0
POLYLINE
  5
56AB
  8
0
 66
     1
 10
0.0
 20
0.0
 30
0.0
 70
    64
 71
     4
 72
     2
  0
VERTEX
  5
56AC
  8
0
 10
305.9999999999998
 20
682.0
 30
61.99999999999965
 70
   192
  0
VERTEX
  5
56AD
  8
0
 10
305.9999999999998
 20
18.0
 30
61.99999999999965
 70
   192
  0
VERTEX
  5
56AE
  8
0
 10
287.9999999999996
 20
18.0
 30
61.99999999999965
 70
   192
  0
VERTEX
  5
56AF
  8
0
 10
287.9999999999996
 20
682.0
 30
61.99999999999965
 70
   192
  0
VERTEX
  5
56B0
  8
0
 10
0.0
 20
0.0
 30
0.0
 70
   128
 71
     1
 72
     4
 73
    -3
  0
VERTEX
  5
56B1
  8
0
 10
0.0
 20
0.0
 30
0.0
 70
   128
 71
    -1
 72
     3
 73
     2
  0
SEQEND
  5
5E26
  8
0
  0
POLYLINE
  5
56B2
  8
0
 66
     1
 10
0.0
 20
0.0
 30
0.0
 70
    64
 71
     4
 72
     2
  0
VERTEX
  5
56B3
  8
0
 10
305.9999999999998
 20
682.0
 30
-62.00000000000036
 70
   192
  0
VERTEX
  5
56B4
  8
0
 10
305.9999999999998
 20
18.0
 30
-62.00000000000036
 70
   192
  0
VERTEX
  5
56B5
  8
0
 10
305.9999999999998
 20
18.0
 30
61.99999999999965
 70
   192
  0
VERTEX
  5
56B6
  8
0
 10
305.9999999999998
 20
682.0
 30
61.99999999999964
 70
   192
  0
VERTEX
  5
56B7
  8
0
 10
0.0
 20
0.0
 30
0.0
 70
   128
 71
     1
 72
     4
 73
    -3
  0
VERTEX
  5
56B8
  8
0
 10
0.0
 20
0.0
 30
0.0
 70
   128
 71
    -1
 72
     3
 73
     2
  0
SEQEND
  5
5E27
  8
0
  0
POLYLINE
  5
56B9
  8
0
 66
     1
 10
0.0
 20
0.0
 30
0.0
 70
    64
 71
     4
 72
     2
  0
VERTEX
  5
56BA
  8
0
 10
287.9999999999998
 20
18.0
 30
-62.00000000000035
 70
   192
  0
VERTEX
  5
56BB
  8
0
 10
287.9999999999996
 20
18.0
 30
61.99999999999965
 70
   192
  0
VERTEX
  5
56BC
  8
0
 10
305.9999999999998
 20
18.0
 30
61.99999999999964
 70
   192
  0
VERTEX
  5
56BD
  8
0
 10
305.9999999999998
 20
18.0
 30
-62.00000000000036
 70
   192
  0
VERTEX
  5
56BE
  8
0
 10
0.0
 20
0.0
 30
0.0
 70
   128
 71
     1
 72
     4
 73
    -3
  0
VERTEX
  5
56BF
  8
0
 10
0.0
 20
0.0
 30
0.0
 70
   128
 71
    -1
 72
     3
 73
     2
  0
SEQEND
  5
5E28
  8
0
  0
POLYLINE
  5
56C0
  8
0
 66
     1
 10
0.0
 20
0.0
 30
0.0
 70
    64
 71
     4
 72
     2
  0
VERTEX
  5
56C1
  8
0
 10
305.9999999999998
 20
682.0
 30
61.99999999999964
 70
   192
  0
VERTEX
  5
56C2
  8
0
 10
305.9999999999998
 20
682.0
 30
-62.00000000000036
 70
   192
  0
VERTEX
  5
56C3
  8
0
 10
287.9999999999998
 20
682.0
 30
-62.00000000000035
 70
   192
  0
VERTEX
  5
56C4
  8
0
 10
287.9999999999996
 20
682.0
 30
61.99999999999965
 70
   192
  0
VERTEX
  5
56C5
  8
0
 10
0.0
 20
0.0
 30
0.0
 70
   128
 71
     3
 72
     4
 73
    -1
  0
VERTEX
  5
56C6
  8
0
 10
0.0
 20
0.0
 30
0.0
 70
   128
 71
     2
 72
    -3
 73
     1
  0
SEQEND
  5
5E29
  8
0
  0
ENDBLK
  5
5E23
  8
0
  0
BLOCK
  8
0
  2
*X14
 70
     1
 10
0.0
 20
0.0
 30
0.0
  3
*X14
  1

  0
POLYLINE
  5
56C8
  8
0
 66
     1
 10
0.0
 20
0.0
 30
0.0
 70
    64
 71
     4
 72
     2
  0
VERTEX
  5
56C9
  8
0
 10
287.9999999999997
 20
682.0
 30
-61.99999999999983
 70
   192
  0
VERTEX
  5
56CA
  8
0
 10
287.9999999999997
 20
682.0
 30
-1.999999999999828
 70
   192
  0
VERTEX
  5
56CB
  8
0
 10
267.9999999999997
 20
682.0
 30
-1.999999999999828
 70
   192
  0
VERTEX
  5
56CC
  8
0
 10
267.9999999999997
 20
682.0
 30
-61.99999999999983
 70
   192
  0
VERTEX
  5
56CD
  8
0
 10
0.0
 20
0.0
 30
0.0
 70
   128
 71
     1
 72
     4
 73
    -3
  0
VERTEX
  5
56CE
  8
0
 10
0.0
 20
0.0
 30
0.0
 70
   128
 71
    -1
 72
     3
 73
     2
  0
SEQEND
  5
5E2C
  8
0
  0
POLYLINE
  5
56CF
  8
0
 66
     1
 10
0.0
 20
0.0
 30
0.0
 70
    64
 71
     4
 72
     2
  0
VERTEX
  5
56D0
  8
0
 10
267.9999999999997
 20
682.0
 30
-61.99999999999983
 70
   192
  0
VERTEX
  5
56D1
  8
0
 10
267.9999999999997
 20
682.0
 30
-1.999999999999828
 70
   192
  0
VERTEX
  5
56D2
  8
0
 10
267.9999999999997
 20
647.0000000000001
 30
-1.999999999999943
 70
   192
  0
VERTEX
  5
56D3
  8
0
 10
267.9999999999997
 20
622.0000000000001
 30
-61.99999999999983
 70
   192
  0
VERTEX
  5
56D4
  8
0
 10
0.0
 20
0.0
 30
0.0
 70
   128
 71
     1
 72
     4
 73
    -3
  0
VERTEX
  5
56D5
  8
0
 10
0.0
 20
0.0
 30
0.0
 70
   128
 71
    -1
 72
     3
 73
     2
  0
SEQEND
  5
5E2D
  8
0
  0
POLYLINE
  5
56D6
  8
0
 66
     1
 10
0.0
 20
0.0
 30
0.0
 70
    64
 71
     4
 72
     2
  0
VERTEX
  5
56D7
  8
0
 10
287.9999999999997
 20
682.0
 30
-1.999999999999828
 70
   192
  0
VERTEX
  5
56D8
  8
0
 10
287.9999999999997
 20
682.0
 30
-61.99999999999983
 70
   192
  0
VERTEX
  5
56D9
  8
0
 10
287.9999999999997
 20
622.0
 30
-61.99999999999982
 70
   192
  0
VERTEX
  5
56DA
  8
0
 10
287.9999999999997
 20
647.0000000000001
 30
-1.999999999999828
 70
   192
  0
VERTEX
  5
56DB
  8
0
 10
0.0
 20
0.0
 30
0.0
 70
   128
 71
     1
 72
     4
 73
    -3
  0
VERTEX
  5
56DC
  8
0
 10
0.0
 20
0.0
 30
0.0
 70
   128
 71
    -1
 72
     3
 73
     2
  0
SEQEND
  5
5E2E
  8
0
  0
POLYLINE
  5
56DD
  8
0
 66
     1
 10
0.0
 20
0.0
 30
0.0
 70
    64
 71
     4
 72
     2
  0
VERTEX
  5
56DE
  8
0
 10
267.9999999999997
 20
647.0000000000001
 30
-1.999999999999946
 70
   192
  0
VERTEX
  5
56DF
  8
0
 10
287.9999999999998
 20
647.0000000000001
 30
-1.999999999999946
 70
   192
  0
VERTEX
  5
56E0
  8
0
 10
287.9999999999997
 20
682.0
 30
-1.999999999999828
 70
   192
  0
VERTEX
  5
56E1
  8
0
 10
267.9999999999997
 20
682.0
 30
-1.999999999999828
 70
   192
  0
VERTEX
  5
56E2
  8
0
 10
0.0
 20
0.0
 30
0.0
 70
   128
 71
     3
 72
     4
 73
    -1
  0
VERTEX
  5
56E3
  8
0
 10
0.0
 20
0.0
 30
0.0
 70
   128
 71
     2
 72
    -3
 73
     1
  0
SEQEND
  5
5E2F
  8
0
  0
POLYLINE
  5
56E4
  8
0
 66
     1
 10
0.0
 20
0.0
 30
0.0
 70
    64
 71
     4
 72
     2
  0
VERTEX
  5
56E5
  8
0
 10
267.9999999999997
 20
682.0
 30
-61.99999999999983
 70
   192
  0
VERTEX
  5
56E6
  8
0
 10
267.9999999999997
 20
622.0000000000001
 30
-61.99999999999983
 70
   192
  0
VERTEX
  5
56E7
  8
0
 10
287.9999999999997
 20
622.0
 30
-61.99999999999983
 70
   192
  0
VERTEX
  5
56E8
  8
0
 10
287.9999999999997
 20
682.0
 30
-61.99999999999983
 70
   192
  0
VERTEX
  5
56E9
  8
0
 10
0.0
 20
0.0
 30
0.0
 70
   128
 71
     1
 72
     4
 73
    -3
  0
VERTEX
  5
56EA
  8
0
 10
0.0
 20
0.0
 30
0.0
 70
   128
 71
    -1
 72
     3
 73
     2
  0
SEQEND
  5
5E30
  8
0
  0
POLYLINE
  5
56EB
  8
0
 66
     1
 10
0.0
 20
0.0
 30
0.0
 70
    64
 71
     4
 72
     2
  0
VERTEX
  5
56EC
  8
0
 10
267.9999999999997
 20
622.0
 30
-61.99999999999979
 70
   192
  0
VERTEX
  5
56ED
  8
0
 10
267.9999999999997
 20
647.0000000000001
 30
-1.999999999999946
 70
   192
  0
VERTEX
  5
56EE
  8
0
 10
287.9999999999997
 20
647.0000000000001
 30
-1.999999999999943
 70
   192
  0
VERTEX
  5
56EF
  8
0
 10
287.9999999999997
 20
622.0000000000001
 30
-61.99999999999983
 70
   192
  0
VERTEX
  5
56F0
  8
0
 10
0.0
 20
0.0
 30
0.0
 70
   128
 71
     1
 72
     4
 73
    -3
  0
VERTEX
  5
56F1
  8
0
 10
0.0
 20
0.0
 30
0.0
 70
   128
 71
    -1
 72
     3
 73
     2
  0
SEQEND
  5
5E31
  8
0
  0
ENDBLK
  5
5E2B
  8
0
  0
BLOCK
  8
0
  2
*X15
 70
     1
 10
0.0
 20
0.0
 30
0.0
  3
*X15
  1

  0
POLYLINE
  5
56F3
  8
0
 66
     1
 10
0.0
 20
0.0
 30
0.0
 70
    64
 71
     4
 72
     2
  0
VERTEX
  5
56F4
  8
0
 10
586.0000000000002
 20
682.0
 30
-61.99999999999983
 70
   192
  0
VERTEX
  5
56F5
  8
0
 10
586.0000000000002
 20
682.0
 30
-1.999999999999828
 70
   192
  0
VERTEX
  5
56F6
  8
0
 10
566.0000000000001
 20
682.0
 30
-1.999999999999828
 70
   192
  0
VERTEX
  5
56F7
  8
0
 10
566.0000000000001
 20
682.0
 30
-61.99999999999983
 70
   192
  0
VERTEX
  5
56F8
  8
0
 10
0.0
 20
0.0
 30
0.0
 70
   128
 71
     1
 72
     4
 73
    -3
  0
VERTEX
  5
56F9
  8
0
 10
0.0
 20
0.0
 30
0.0
 70
   128
 71
    -1
 72
     3
 73
     2
  0
SEQEND
  5
5E34
  8
0
  0
POLYLINE
  5
56FA
  8
0
 66
     1
 10
0.0
 20
0.0
 30
0.0
 70
    64
 71
     4
 72
     2
  0
VERTEX
  5
56FB
  8
0
 10
566.0000000000001
 20
682.0
 30
-61.99999999999983
 70
   192
  0
VERTEX
  5
56FC
  8
0
 10
566.0000000000001
 20
682.0
 30
-1.999999999999828
 70
   192
  0
VERTEX
  5
56FD
  8
0
 10
566.0000000000001
 20
647.0000000000001
 30
-1.999999999999943
 70
   192
  0
VERTEX
  5
56FE
  8
0
 10
566.0000000000001
 20
622.0
 30
-61.99999999999983
 70
   192
  0
VERTEX
  5
56FF
  8
0
 10
0.0
 20
0.0
 30
0.0
 70
   128
 71
     1
 72
     4
 73
    -3
  0
VERTEX
  5
5700
  8
0
 10
0.0
 20
0.0
 30
0.0
 70
   128
 71
    -1
 72
     3
 73
     2
  0
SEQEND
  5
5E35
  8
0
  0
POLYLINE
  5
5701
  8
0
 66
     1
 10
0.0
 20
0.0
 30
0.0
 70
    64
 71
     4
 72
     2
  0
VERTEX
  5
5702
  8
0
 10
586.0000000000002
 20
682.0
 30
-1.999999999999828
 70
   192
  0
VERTEX
  5
5703
  8
0
 10
586.0000000000002
 20
682.0
 30
-61.99999999999983
 70
   192
  0
VERTEX
  5
5704
  8
0
 10
586.0000000000001
 20
622.0
 30
-61.99999999999984
 70
   192
  0
VERTEX
  5
5705
  8
0
 10
586.0000000000002
 20
647.0000000000001
 30
-1.999999999999828
 70
   192
  0
VERTEX
  5
5706
  8
0
 10
0.0
 20
0.0
 30
0.0
 70
   128
 71
     1
 72
     4
 73
    -3
  0
VERTEX
  5
5707
  8
0
 10
0.0
 20
0.0
 30
0.0
 70
   128
 71
    -1
 72
     3
 73
     2
  0
SEQEND
  5
5E36
  8
0
  0
POLYLINE
  5
5708
  8
0
 66
     1
 10
0.0
 20
0.0
 30
0.0
 70
    64
 71
     4
 72
     2
  0
VERTEX
  5
5709
  8
0
 10
566.0
 20
647.0000000000001
 30
-1.999999999999946
 70
   192
  0
VERTEX
  5
570A
  8
0
 10
586.0
 20
647.0000000000001
 30
-1.999999999999946
 70
   192
  0
VERTEX
  5
570B
  8
0
 10
586.0000000000002
 20
682.0
 30
-1.999999999999828
 70
   192
  0
VERTEX
  5
570C
  8
0
 10
566.0000000000001
 20
682.0
 30
-1.999999999999828
 70
   192
  0
VERTEX
  5
570D
  8
0
 10
0.0
 20
0.0
 30
0.0
 70
   128
 71
     3
 72
     4
 73
    -1
  0
VERTEX
  5
570E
  8
0
 10
0.0
 20
0.0
 30
0.0
 70
   128
 71
     2
 72
    -3
 73
     1
  0
SEQEND
  5
5E37
  8
0
  0
POLYLINE
  5
570F
  8
0
 66
     1
 10
0.0
 20
0.0
 30
0.0
 70
    64
 71
     4
 72
     2
  0
VERTEX
  5
5710
  8
0
 10
566.0000000000001
 20
682.0
 30
-61.99999999999983
 70
   192
  0
VERTEX
  5
5711
  8
0
 10
566.0000000000001
 20
622.0
 30
-61.99999999999983
 70
   192
  0
VERTEX
  5
5712
  8
0
 10
586.0000000000002
 20
622.0
 30
-61.99999999999983
 70
   192
  0
VERTEX
  5
5713
  8
0
 10
586.0000000000002
 20
682.0
 30
-61.99999999999983
 70
   192
  0
VERTEX
  5
5714
  8
0
 10
0.0
 20
0.0
 30
0.0
 70
   128
 71
     1
 72
     4
 73
    -3
  0
VERTEX
  5
5715
  8
0
 10
0.0
 20
0.0
 30
0.0
 70
   128
 71
    -1
 72
     3
 73
     2
  0
SEQEND
  5
5E38
  8
0
  0
POLYLINE
  5
5716
  8
0
 66
     1
 10
0.0
 20
0.0
 30
0.0
 70
    64
 71
     4
 72
     2
  0
VERTEX
  5
5717
  8
0
 10
566.0000000000001
 20
622.0
 30
-61.99999999999982
 70
   192
  0
VERTEX
  5
5718
  8
0
 10
566.0
 20
647.0000000000001
 30
-1.999999999999946
 70
   192
  0
VERTEX
  5
5719
  8
0
 10
586.0000000000001
 20
647.0000000000001
 30
-1.99999999999995
 70
   192
  0
VERTEX
  5
571A
  8
0
 10
586.0000000000001
 20
622.0000000000001
 30
-61.99999999999983
 70
   192
  0
VERTEX
  5
571B
  8
0
 10
0.0
 20
0.0
 30
0.0
 70
   128
 71
     1
 72
     4
 73
    -3
  0
VERTEX
  5
571C
  8
0
 10
0.0
 20
0.0
 30
0.0
 70
   128
 71
    -1
 72
     3
 73
     2
  0
SEQEND
  5
5E39
  8
0
  0
ENDBLK
  5
5E33
  8
0
  0
BLOCK
  8
0
  2
*X16
 70
     1
 10
0.0
 20
0.0
 30
0.0
  3
*X16
  1

  0
POLYLINE
  5
571E
  8
0
 66
     1
 10
0.0
 20
0.0
 30
0.0
 70
    64
 71
     4
 72
     2
  0
VERTEX
  5
571F
  8
0
 10
-300.0
 20
700.5
 30
78.00000000000057
 70
   192
  0
VERTEX
  5
5720
  8
0
 10
-300.0
 20
700.5
 30
81.00000000000057
 70
   192
  0
VERTEX
  5
5721
  8
0
 10
-300.0
 20
0.4999999999999449
 30
81.00000000000057
 70
   192
  0
VERTEX
  5
5722
  8
0
 10
-300.0
 20
0.5
 30
78.00000000000057
 70
   192
  0
VERTEX
  5
5723
  8
0
 10
0.0
 20
0.0
 30
0.0
 70
   128
 71
     1
 72
     4
 73
    -3
  0
VERTEX
  5
5724
  8
0
 10
0.0
 20
0.0
 30
0.0
 70
   128
 71
    -1
 72
     3
 73
     2
  0
SEQEND
  5
5E3C
  8
0
  0
POLYLINE
  5
5725
  8
0
 66
     1
 10
0.0
 20
0.0
 30
0.0
 70
    64
 71
     4
 72
     2
  0
VERTEX
  5
5726
  8
0
 10
-300.0
 20
0.4999999999999449
 30
78.00000000000057
 70
   192
  0
VERTEX
  5
5727
  8
0
 10
-300.0
 20
0.4999999999999449
 30
81.00000000000057
 70
   192
  0
VERTEX
  5
5728
  8
0
 10
300.0
 20
0.4999999999999449
 30
81.00000000000057
 70
   192
  0
VERTEX
  5
5729
  8
0
 10
300.0
 20
0.4999999999999449
 30
78.00000000000057
 70
   192
  0
VERTEX
  5
572A
  8
0
 10
0.0
 20
0.0
 30
0.0
 70
   128
 71
     1
 72
     4
 73
    -3
  0
VERTEX
  5
572B
  8
0
 10
0.0
 20
0.0
 30
0.0
 70
   128
 71
    -1
 72
     3
 73
     2
  0
SEQEND
  5
5E3D
  8
0
  0
POLYLINE
  5
572C
  8
0
 66
     1
 10
0.0
 20
0.0
 30
0.0
 70
    64
 71
     4
 72
     2
  0
VERTEX
  5
572D
  8
0
 10
300.0
 20
0.4999999999999449
 30
78.00000000000057
 70
   192
  0
VERTEX
  5
572E
  8
0
 10
300.0
 20
0.4999999999999449
 30
81.00000000000057
 70
   192
  0
VERTEX
  5
572F
  8
0
 10
300.0
 20
700.5
 30
81.00000000000057
 70
   192
  0
VERTEX
  5
5730
  8
0
 10
300.0
 20
700.5
 30
78.00000000000057
 70
   192
  0
VERTEX
  5
5731
  8
0
 10
0.0
 20
0.0
 30
0.0
 70
   128
 71
     1
 72
     4
 73
    -3
  0
VERTEX
  5
5732
  8
0
 10
0.0
 20
0.0
 30
0.0
 70
   128
 71
    -1
 72
     3
 73
     2
  0
SEQEND
  5
5E3E
  8
0
  0
POLYLINE
  5
5733
  8
0
 66
     1
 10
0.0
 20
0.0
 30
0.0
 70
    64
 71
     4
 72
     2
  0
VERTEX
  5
5734
  8
0
 10
300.0
 20
700.5
 30
78.00000000000057
 70
   192
  0
VERTEX
  5
5735
  8
0
 10
300.0
 20
700.5
 30
81.00000000000057
 70
   192
  0
VERTEX
  5
5736
  8
0
 10
-300.0
 20
700.5
 30
81.00000000000057
 70
   192
  0
VERTEX
  5
5737
  8
0
 10
-300.0
 20
700.5
 30
78.00000000000057
 70
   192
  0
VERTEX
  5
5738
  8
0
 10
0.0
 20
0.0
 30
0.0
 70
   128
 71
     1
 72
     4
 73
    -3
  0
VERTEX
  5
5739
  8
0
 10
0.0
 20
0.0
 30
0.0
 70
   128
 71
    -1
 72
     3
 73
     2
  0
SEQEND
  5
5E3F
  8
0
  0
POLYLINE
  5
573A
  8
0
 66
     1
 10
0.0
 20
0.0
 30
0.0
 70
    64
 71
     4
 72
     2
  0
VERTEX
  5
573B
  8
0
 10
-300.0
 20
700.5
 30
81.00000000000057
 70
   192
  0
VERTEX
  5
573C
  8
0
 10
-300.0
 20
0.5
 30
81.00000000000057
 70
   192
  0
VERTEX
  5
573D
  8
0
 10
300.0
 20
0.4999999999999449
 30
81.00000000000057
 70
   192
  0
VERTEX
  5
573E
  8
0
 10
300.0
 20
700.5
 30
81.00000000000057
 70
   192
  0
VERTEX
  5
573F
  8
0
 10
0.0
 20
0.0
 30
0.0
 70
   128
 71
     3
 72
     4
 73
    -1
  0
VERTEX
  5
5740
  8
0
 10
0.0
 20
0.0
 30
0.0
 70
   128
 71
     2
 72
    -3
 73
     1
  0
SEQEND
  5
5E40
  8
0
  0
POLYLINE
  5
5741
  8
0
 66
     1
 10
0.0
 20
0.0
 30
0.0
 70
    64
 71
     4
 72
     2
  0
VERTEX
  5
5742
  8
0
 10
-300.0
 20
0.4999999999999449
 30
78.00000000000057
 70
   192
  0
VERTEX
  5
5743
  8
0
 10
300.0
 20
0.4999999999999449
 30
78.00000000000057
 70
   192
  0
VERTEX
  5
5744
  8
0
 10
300.0
 20
700.5
 30
78.00000000000057
 70
   192
  0
VERTEX
  5
5745
  8
0
 10
-300.0
 20
700.5
 30
78.00000000000057
 70
   192
  0
VERTEX
  5
5746
  8
0
 10
0.0
 20
0.0
 30
0.0
 70
   128
 71
     1
 72
     4
 73
    -3
  0
VERTEX
  5
5747
  8
0
 10
0.0
 20
0.0
 30
0.0
 70
   128
 71
    -1
 72
     3
 73
     2
  0
SEQEND
  5
5E41
  8
0
  0
ENDBLK
  5
5E3B
  8
0
  0
BLOCK
  8
0
  2
*X17
 70
     1
 10
0.0
 20
0.0
 30
0.0
  3
*X17
  1

  0
POLYLINE
  5
5749
  8
0
 66
     1
 10
0.0
 20
0.0
 30
0.0
 70
    64
 71
     8
 72
     8
  0
VERTEX
  5
574A
  8
0
 10
-300.0
 20
0.4999999999999449
 30
78.00000000000057
 70
   192
  0
VERTEX
  5
574B
  8
0
 10
300.0
 20
0.4999999999999449
 30
78.00000000000055
 70
   192
  0
VERTEX
  5
574C
  8
0
 10
300.0
 20
0.4999999999999449
 30
62.00000000000058
 70
   192
  0
VERTEX
  5
574D
  8
0
 10
-300.0
 20
0.4999999999999449
 30
62.00000000000057
 70
   192
  0
VERTEX
  5
574E
  8
0
 10
-295.0
 20
0.4999999999999449
 30
63.75000000000057
 70
   192
  0
VERTEX
  5
574F
  8
0
 10
-245.0
 20
0.4999999999999449
 30
63.75000000000057
 70
   192
  0
VERTEX
  5
5750
  8
0
 10
-245.0
 20
0.4999999999999449
 30
76.25000000000057
 70
   192
  0
VERTEX
  5
5751
  8
0
 10
-295.0
 20
0.4999999999999449
 30
76.25000000000057
 70
   192
  0
VERTEX
  5
5752
  8
0
 10
0.0
 20
0.0
 30
0.0
 70
   128
 71
     6
 72
    -5
 73
    -4
  0
VERTEX
  5
5753
  8
0
 10
0.0
 20
0.0
 30
0.0
 70
   128
 71
    -6
 72
     4
 73
    -3
  0
VERTEX
  5
5754
  8
0
 10
0.0
 20
0.0
 30
0.0
 70
   128
 71
     3
 72
    -2
 73
    -7
  0
VERTEX
  5
5755
  8
0
 10
0.0
 20
0.0
 30
0.0
 70
   128
 71
    -3
 72
     7
 73
    -6
  0
VERTEX
  5
5756
  8
0
 10
0.0
 20
0.0
 30
0.0
 70
   128
 71
     2
 72
    -1
 73
    -7
  0
VERTEX
  5
5757
  8
0
 10
0.0
 20
0.0
 30
0.0
 70
   128
 71
    -1
 72
     8
 73
    -7
  0
VERTEX
  5
5758
  8
0
 10
0.0
 20
0.0
 30
0.0
 70
   128
 71
     1
 72
    -4
 73
    -5
  0
VERTEX
  5
5759
  8
0
 10
0.0
 20
0.0
 30
0.0
 70
   128
 71
    -1
 72
     5
 73
    -8
  0
SEQEND
  5
5E44
  8
0
  0
POLYLINE
  5
575A
  8
0
 66
     1
 10
0.0
 20
0.0
 30
0.0
 70
    64
 71
     4
 72
     2
  0
VERTEX
  5
575B
  8
0
 10
-300.0
 20
0.5
 30
62.00000000000057
 70
   192
  0
VERTEX
  5
575C
  8
0
 10
-300.0
 20
700.5
 30
62.00000000000057
 70
   192
  0
VERTEX
  5
575D
  8
0
 10
-300.0
 20
700.5
 30
78.00000000000057
 70
   192
  0
VERTEX
  5
575E
  8
0
 10
-300.0
 20
0.4999999999999449
 30
78.00000000000057
 70
   192
  0
VERTEX
  5
575F
  8
0
 10
0.0
 20
0.0
 30
0.0
 70
   128
 71
     1
 72
     4
 73
    -3
  0
VERTEX
  5
5760
  8
0
 10
0.0
 20
0.0
 30
0.0
 70
   128
 71
    -1
 72
     3
 73
     2
  0
SEQEND
  5
5E45
  8
0
  0
POLYLINE
  5
5761
  8
0
 66
     1
 10
0.0
 20
0.0
 30
0.0
 70
    64
 71
     4
 72
     2
  0
VERTEX
  5
5762
  8
0
 10
-300.0
 20
0.5
 30
78.00000000000057
 70
   192
  0
VERTEX
  5
5763
  8
0
 10
-300.0
 20
700.5
 30
78.00000000000057
 70
   192
  0
VERTEX
  5
5764
  8
0
 10
300.0
 20
700.5
 30
78.00000000000055
 70
   192
  0
VERTEX
  5
5765
  8
0
 10
300.0
 20
0.4999999999999449
 30
78.00000000000055
 70
   192
  0
VERTEX
  5
5766
  8
0
 10
0.0
 20
0.0
 30
0.0
 70
   128
 71
     1
 72
     4
 73
    -3
  0
VERTEX
  5
5767
  8
0
 10
0.0
 20
0.0
 30
0.0
 70
   128
 71
    -1
 72
     3
 73
     2
  0
SEQEND
  5
5E46
  8
0
  0
POLYLINE
  5
5768
  8
0
 66
     1
 10
0.0
 20
0.0
 30
0.0
 70
    64
 71
     4
 72
     2
  0
VERTEX
  5
5769
  8
0
 10
300.0
 20
0.5
 30
78.00000000000055
 70
   192
  0
VERTEX
  5
576A
  8
0
 10
300.0
 20
700.5
 30
78.00000000000055
 70
   192
  0
VERTEX
  5
576B
  8
0
 10
300.0
 20
700.5
 30
62.00000000000058
 70
   192
  0
VERTEX
  5
576C
  8
0
 10
300.0
 20
0.4999999999999449
 30
62.00000000000058
 70
   192
  0
VERTEX
  5
576D
  8
0
 10
0.0
 20
0.0
 30
0.0
 70
   128
 71
     1
 72
     4
 73
    -3
  0
VERTEX
  5
576E
  8
0
 10
0.0
 20
0.0
 30
0.0
 70
   128
 71
    -1
 72
     3
 73
     2
  0
SEQEND
  5
5E47
  8
0
  0
POLYLINE
  5
576F
  8
0
 66
     1
 10
0.0
 20
0.0
 30
0.0
 70
    64
 71
     4
 72
     2
  0
VERTEX
  5
5770
  8
0
 10
300.0
 20
0.5
 30
62.00000000000058
 70
   192
  0
VERTEX
  5
5771
  8
0
 10
300.0
 20
700.5
 30
62.00000000000058
 70
   192
  0
VERTEX
  5
5772
  8
0
 10
-300.0
 20
700.5
 30
62.00000000000057
 70
   192
  0
VERTEX
  5
5773
  8
0
 10
-300.0
 20
0.4999999999999449
 30
62.00000000000057
 70
   192
  0
VERTEX
  5
5774
  8
0
 10
0.0
 20
0.0
 30
0.0
 70
   128
 71
     1
 72
     4
 73
    -3
  0
VERTEX
  5
5775
  8
0
 10
0.0
 20
0.0
 30
0.0
 70
   128
 71
    -1
 72
     3
 73
     2
  0
SEQEND
  5
5E48
  8
0
  0
POLYLINE
  5
5776
  8
0
 66
     1
 10
0.0
 20
0.0
 30
0.0
 70
    64
 71
     4
 72
     2
  0
VERTEX
  5
5777
  8
0
 10
-300.0
 20
700.5
 30
62.00000000000057
 70
   192
  0
VERTEX
  5
5778
  8
0
 10
-300.0
 20
700.5
 30
78.00000000000057
 70
   192
  0
VERTEX
  5
5779
  8
0
 10
300.0
 20
700.5
 30
78.00000000000055
 70
   192
  0
VERTEX
  5
577A
  8
0
 10
300.0
 20
700.5
 30
62.00000000000058
 70
   192
  0
VERTEX
  5
577B
  8
0
 10
0.0
 20
0.0
 30
0.0
 70
   128
 71
     3
 72
     4
 73
    -1
  0
VERTEX
  5
577C
  8
0
 10
0.0
 20
0.0
 30
0.0
 70
   128
 71
     2
 72
    -3
 73
     1
  0
SEQEND
  5
5E49
  8
0
  0
POLYLINE
  5
577D
  8
0
 66
     1
 10
0.0
 20
0.0
 30
0.0
 70
    64
 71
     4
 72
     2
  0
VERTEX
  5
577E
  8
0
 10
-295.0
 20
0.4999999999999449
 30
76.25000000000057
 70
   192
  0
VERTEX
  5
577F
  8
0
 10
-295.0
 20
0.4999999999999449
 30
63.75000000000057
 70
   192
  0
VERTEX
  5
5780
  8
0
 10
-293.683475024126
 20
-9.500000000000062
 30
65.06652497587453
 70
   192
  0
VERTEX
  5
5781
  8
0
 10
-293.683475024126
 20
-9.500000000000055
 30
74.93347502412661
 70
   192
  0
VERTEX
  5
5782
  8
0
 10
0.0
 20
0.0
 30
0.0
 70
   128
 71
     3
 72
     4
 73
    -1
  0
VERTEX
  5
5783
  8
0
 10
0.0
 20
0.0
 30
0.0
 70
   128
 71
     2
 72
    -3
 73
     1
  0
SEQEND
  5
5E4A
  8
0
  0
POLYLINE
  5
5784
  8
0
 66
     1
 10
0.0
 20
0.0
 30
0.0
 70
    64
 71
     4
 72
     2
  0
VERTEX
  5
5785
  8
0
 10
-295.0
 20
0.4999999999999449
 30
63.75000000000057
 70
   192
  0
VERTEX
  5
5786
  8
0
 10
-245.0
 20
0.4999999999999449
 30
63.75000000000057
 70
   192
  0
VERTEX
  5
5787
  8
0
 10
-246.3165249758739
 20
-9.500000000000055
 30
65.06652497587453
 70
   192
  0
VERTEX
  5
5788
  8
0
 10
-293.683475024126
 20
-9.500000000000055
 30
65.06652497587453
 70
   192
  0
VERTEX
  5
5789
  8
0
 10
0.0
 20
0.0
 30
0.0
 70
   128
 71
     3
 72
     4
 73
    -1
  0
VERTEX
  5
578A
  8
0
 10
0.0
 20
0.0
 30
0.0
 70
   128
 71
     2
 72
    -3
 73
     1
  0
SEQEND
  5
5E4B
  8
0
  0
POLYLINE
  5
578B
  8
0
 66
     1
 10
0.0
 20
0.0
 30
0.0
 70
    64
 71
     4
 72
     2
  0
VERTEX
  5
578C
  8
0
 10
-245.0
 20
0.4999999999999449
 30
63.75000000000057
 70
   192
  0
VERTEX
  5
578D
  8
0
 10
-245.0
 20
0.4999999999999449
 30
76.25000000000057
 70
   192
  0
VERTEX
  5
578E
  8
0
 10
-246.3165249758739
 20
-9.500000000000053
 30
74.93347502412661
 70
   192
  0
VERTEX
  5
578F
  8
0
 10
-246.3165249758739
 20
-9.500000000000055
 30
65.06652497587453
 70
   192
  0
VERTEX
  5
5790
  8
0
 10
0.0
 20
0.0
 30
0.0
 70
   128
 71
     3
 72
     4
 73
    -1
  0
VERTEX
  5
5791
  8
0
 10
0.0
 20
0.0
 30
0.0
 70
   128
 71
     2
 72
    -3
 73
     1
  0
SEQEND
  5
5E4C
  8
0
  0
POLYLINE
  5
5792
  8
0
 66
     1
 10
0.0
 20
0.0
 30
0.0
 70
    64
 71
     4
 72
     2
  0
VERTEX
  5
5793
  8
0
 10
-245.0
 20
0.4999999999999449
 30
76.25000000000057
 70
   192
  0
VERTEX
  5
5794
  8
0
 10
-295.0
 20
0.4999999999999449
 30
76.25000000000057
 70
   192
  0
VERTEX
  5
5795
  8
0
 10
-293.683475024126
 20
-9.500000000000062
 30
74.93347502412661
 70
   192
  0
VERTEX
  5
5796
  8
0
 10
-246.3165249758739
 20
-9.500000000000055
 30
74.93347502412661
 70
   192
  0
VERTEX
  5
5797
  8
0
 10
0.0
 20
0.0
 30
0.0
 70
   128
 71
     3
 72
     4
 73
    -1
  0
VERTEX
  5
5798
  8
0
 10
0.0
 20
0.0
 30
0.0
 70
   128
 71
     2
 72
    -3
 73
     1
  0
SEQEND
  5
5E4D
  8
0
  0
POLYLINE
  5
5799
  8
0
 66
     1
 10
0.0
 20
0.0
 30
0.0
 70
    64
 71
     4
 72
     2
  0
VERTEX
  5
579A
  8
0
 10
-293.683475024126
 20
-9.500000000000055
 30
74.93347502412661
 70
   192
  0
VERTEX
  5
579B
  8
0
 10
-293.683475024126
 20
-9.500000000000055
 30
65.06652497587453
 70
   192
  0
VERTEX
  5
579C
  8
0
 10
-246.3165249758739
 20
-9.500000000000055
 30
65.06652497587453
 70
   192
  0
VERTEX
  5
579D
  8
0
 10
-246.3165249758739
 20
-9.500000000000055
 30
74.93347502412661
 70
   192
  0
VERTEX
  5
579E
  8
0
 10
0.0
 20
0.0
 30
0.0
 70
   128
 71
     3
 72
     4
 73
    -1
  0
VERTEX
  5
579F
  8
0
 10
0.0
 20
0.0
 30
0.0
 70
   128
 71
     2
 72
    -3
 73
     1
  0
SEQEND
  5
5E4E
  8
0
  0
ENDBLK
  5
5E43
  8
0
  0
BLOCK
  8
0
  2
*X18
 70
     1
 10
0.0
 20
0.0
 30
0.0
  3
*X18
  1

  0
POLYLINE
  5
57A1
  8
0
 66
     1
 10
0.0
 20
0.0
 30
0.0
 70
    64
 71
     4
 72
     2
  0
VERTEX
  5
57A2
  8
0
 10
-303.0
 20
0.5
 30
78.00000000000057
 70
   192
  0
VERTEX
  5
57A3
  8
0
 10
-303.0
 20
700.5
 30
78.00000000000057
 70
   192
  0
VERTEX
  5
57A4
  8
0
 10
-303.0
 20
700.5
 30
62.00000000000057
 70
   192
  0
VERTEX
  5
57A5
  8
0
 10
-303.0
 20
0.4999999999999449
 30
62.00000000000057
 70
   192
  0
VERTEX
  5
57A6
  8
0
 10
0.0
 20
0.0
 30
0.0
 70
   128
 71
     1
 72
     4
 73
    -3
  0
VERTEX
  5
57A7
  8
0
 10
0.0
 20
0.0
 30
0.0
 70
   128
 71
    -1
 72
     3
 73
     2
  0
SEQEND
  5
5E51
  8
0
  0
POLYLINE
  5
57A8
  8
0
 66
     1
 10
0.0
 20
0.0
 30
0.0
 70
    64
 71
     4
 72
     2
  0
VERTEX
  5
57A9
  8
0
 10
-303.0
 20
0.5
 30
62.00000000000057
 70
   192
  0
VERTEX
  5
57AA
  8
0
 10
-303.0
 20
700.5
 30
62.00000000000057
 70
   192
  0
VERTEX
  5
57AB
  8
0
 10
-603.0
 20
700.5
 30
62.0000000000006
 70
   192
  0
VERTEX
  5
57AC
  8
0
 10
-603.0
 20
0.4999999999999449
 30
62.0000000000006
 70
   192
  0
VERTEX
  5
57AD
  8
0
 10
0.0
 20
0.0
 30
0.0
 70
   128
 71
     1
 72
     4
 73
    -3
  0
VERTEX
  5
57AE
  8
0
 10
0.0
 20
0.0
 30
0.0
 70
   128
 71
    -1
 72
     3
 73
     2
  0
SEQEND
  5
5E52
  8
0
  0
POLYLINE
  5
57AF
  8
0
 66
     1
 10
0.0
 20
0.0
 30
0.0
 70
    64
 71
     4
 72
     2
  0
VERTEX
  5
57B0
  8
0
 10
-603.0
 20
0.5
 30
62.0000000000006
 70
   192
  0
VERTEX
  5
57B1
  8
0
 10
-603.0
 20
700.5
 30
62.0000000000006
 70
   192
  0
VERTEX
  5
57B2
  8
0
 10
-603.0
 20
700.5
 30
78.00000000000071
 70
   192
  0
VERTEX
  5
57B3
  8
0
 10
-603.0
 20
0.4999999999999449
 30
78.00000000000071
 70
   192
  0
VERTEX
  5
57B4
  8
0
 10
0.0
 20
0.0
 30
0.0
 70
   128
 71
     1
 72
     4
 73
    -3
  0
VERTEX
  5
57B5
  8
0
 10
0.0
 20
0.0
 30
0.0
 70
   128
 71
    -1
 72
     3
 73
     2
  0
SEQEND
  5
5E53
  8
0
  0
POLYLINE
  5
57B6
  8
0
 66
     1
 10
0.0
 20
0.0
 30
0.0
 70
    64
 71
     4
 72
     2
  0
VERTEX
  5
57B7
  8
0
 10
-603.0
 20
0.5
 30
78.00000000000071
 70
   192
  0
VERTEX
  5
57B8
  8
0
 10
-603.0
 20
700.5
 30
78.00000000000071
 70
   192
  0
VERTEX
  5
57B9
  8
0
 10
-303.0
 20
700.5
 30
78.00000000000057
 70
   192
  0
VERTEX
  5
57BA
  8
0
 10
-303.0
 20
0.4999999999999449
 30
78.00000000000057
 70
   192
  0
VERTEX
  5
57BB
  8
0
 10
0.0
 20
0.0
 30
0.0
 70
   128
 71
     1
 72
     4
 73
    -3
  0
VERTEX
  5
57BC
  8
0
 10
0.0
 20
0.0
 30
0.0
 70
   128
 71
    -1
 72
     3
 73
     2
  0
SEQEND
  5
5E54
  8
0
  0
POLYLINE
  5
57BD
  8
0
 66
     1
 10
0.0
 20
0.0
 30
0.0
 70
    64
 71
     4
 72
     2
  0
VERTEX
  5
57BE
  8
0
 10
-303.0
 20
700.5
 30
78.00000000000057
 70
   192
  0
VERTEX
  5
57BF
  8
0
 10
-603.0
 20
700.5
 30
78.00000000000071
 70
   192
  0
VERTEX
  5
57C0
  8
0
 10
-603.0
 20
700.5
 30
62.0000000000006
 70
   192
  0
VERTEX
  5
57C1
  8
0
 10
-303.0
 20
700.5
 30
62.00000000000057
 70
   192
  0
VERTEX
  5
57C2
  8
0
 10
0.0
 20
0.0
 30
0.0
 70
   128
 71
     1
 72
     4
 73
    -3
  0
VERTEX
  5
57C3
  8
0
 10
0.0
 20
0.0
 30
0.0
 70
   128
 71
    -1
 72
     3
 73
     2
  0
SEQEND
  5
5E55
  8
0
  0
POLYLINE
  5
57C4
  8
0
 66
     1
 10
0.0
 20
0.0
 30
0.0
 70
    64
 71
     4
 72
     2
  0
VERTEX
  5
57C5
  8
0
 10
-303.0
 20
0.4999999999999449
 30
62.00000000000057
 70
   192
  0
VERTEX
  5
57C6
  8
0
 10
-303.0
 20
0.4999999999999449
 30
78.00000000000057
 70
   192
  0
VERTEX
  5
57C7
  8
0
 10
-603.0
 20
0.4999999999999449
 30
78.00000000000071
 70
   192
  0
VERTEX
  5
57C8
  8
0
 10
-603.0
 20
0.4999999999999449
 30
62.0000000000006
 70
   192
  0
VERTEX
  5
57C9
  8
0
 10
0.0
 20
0.0
 30
0.0
 70
   128
 71
     3
 72
     4
 73
    -1
  0
VERTEX
  5
57CA
  8
0
 10
0.0
 20
0.0
 30
0.0
 70
   128
 71
     2
 72
    -3
 73
     1
  0
SEQEND
  5
5E56
  8
0
  0
ENDBLK
  5
5E50
  8
0
  0
BLOCK
  8
0
  2
*X19
 70
     1
 10
0.0
 20
0.0
 30
0.0
  3
*X19
  1

  0
POLYLINE
  5
57CC
  8
0
 66
     1
 10
0.0
 20
0.0
 30
0.0
 70
    64
 71
     4
 72
     2
  0
VERTEX
  5
57CD
  8
0
 10
603.0
 20
0.5
 30
62.00000000000001
 70
   192
  0
VERTEX
  5
57CE
  8
0
 10
603.0
 20
700.5
 30
62.00000000000001
 70
   192
  0
VERTEX
  5
57CF
  8
0
 10
303.0
 20
700.5
 30
62.00000000000027
 70
   192
  0
VERTEX
  5
57D0
  8
0
 10
303.0
 20
0.4999999999999449
 30
62.00000000000027
 70
   192
  0
VERTEX
  5
57D1
  8
0
 10
0.0
 20
0.0
 30
0.0
 70
   128
 71
     1
 72
     4
 73
    -3
  0
VERTEX
  5
57D2
  8
0
 10
0.0
 20
0.0
 30
0.0
 70
   128
 71
    -1
 72
     3
 73
     2
  0
SEQEND
  5
5E59
  8
0
  0
POLYLINE
  5
57D3
  8
0
 66
     1
 10
0.0
 20
0.0
 30
0.0
 70
    64
 71
     4
 72
     2
  0
VERTEX
  5
57D4
  8
0
 10
303.0
 20
0.5
 30
62.00000000000027
 70
   192
  0
VERTEX
  5
57D5
  8
0
 10
303.0
 20
700.5
 30
62.00000000000027
 70
   192
  0
VERTEX
  5
57D6
  8
0
 10
303.0
 20
700.5
 30
78.0000000000005
 70
   192
  0
VERTEX
  5
57D7
  8
0
 10
303.0
 20
0.4999999999999449
 30
78.0000000000005
 70
   192
  0
VERTEX
  5
57D8
  8
0
 10
0.0
 20
0.0
 30
0.0
 70
   128
 71
     1
 72
     4
 73
    -3
  0
VERTEX
  5
57D9
  8
0
 10
0.0
 20
0.0
 30
0.0
 70
   128
 71
    -1
 72
     3
 73
     2
  0
SEQEND
  5
5E5A
  8
0
  0
POLYLINE
  5
57DA
  8
0
 66
     1
 10
0.0
 20
0.0
 30
0.0
 70
    64
 71
     4
 72
     2
  0
VERTEX
  5
57DB
  8
0
 10
303.0
 20
0.5
 30
78.0000000000005
 70
   192
  0
VERTEX
  5
57DC
  8
0
 10
303.0
 20
700.5
 30
78.0000000000005
 70
   192
  0
VERTEX
  5
57DD
  8
0
 10
603.0
 20
700.5
 30
78.00000000000057
 70
   192
  0
VERTEX
  5
57DE
  8
0
 10
603.0
 20
0.4999999999999449
 30
78.00000000000057
 70
   192
  0
VERTEX
  5
57DF
  8
0
 10
0.0
 20
0.0
 30
0.0
 70
   128
 71
     1
 72
     4
 73
    -3
  0
VERTEX
  5
57E0
  8
0
 10
0.0
 20
0.0
 30
0.0
 70
   128
 71
    -1
 72
     3
 73
     2
  0
SEQEND
  5
5E5B
  8
0
  0
POLYLINE
  5
57E1
  8
0
 66
     1
 10
0.0
 20
0.0
 30
0.0
 70
    64
 71
     4
 72
     2
  0
VERTEX
  5
57E2
  8
0
 10
603.0
 20
0.5
 30
78.00000000000057
 70
   192
  0
VERTEX
  5
57E3
  8
0
 10
603.0
 20
700.5
 30
78.00000000000057
 70
   192
  0
VERTEX
  5
57E4
  8
0
 10
603.0
 20
700.5
 30
62.00000000000001
 70
   192
  0
VERTEX
  5
57E5
  8
0
 10
603.0
 20
0.4999999999999449
 30
62.00000000000001
 70
   192
  0
VERTEX
  5
57E6
  8
0
 10
0.0
 20
0.0
 30
0.0
 70
   128
 71
     1
 72
     4
 73
    -3
  0
VERTEX
  5
57E7
  8
0
 10
0.0
 20
0.0
 30
0.0
 70
   128
 71
    -1
 72
     3
 73
     2
  0
SEQEND
  5
5E5C
  8
0
  0
POLYLINE
  5
57E8
  8
0
 66
     1
 10
0.0
 20
0.0
 30
0.0
 70
    64
 71
     4
 72
     2
  0
VERTEX
  5
57E9
  8
0
 10
603.0
 20
700.5
 30
62.00000000000001
 70
   192
  0
VERTEX
  5
57EA
  8
0
 10
603.0
 20
700.5
 30
78.00000000000057
 70
   192
  0
VERTEX
  5
57EB
  8
0
 10
303.0
 20
700.5
 30
78.0000000000005
 70
   192
  0
VERTEX
  5
57EC
  8
0
 10
303.0
 20
700.5
 30
62.00000000000027
 70
   192
  0
VERTEX
  5
57ED
  8
0
 10
0.0
 20
0.0
 30
0.0
 70
   128
 71
     1
 72
     4
 73
    -3
  0
VERTEX
  5
57EE
  8
0
 10
0.0
 20
0.0
 30
0.0
 70
   128
 71
    -1
 72
     3
 73
     2
  0
SEQEND
  5
5E5D
  8
0
  0
POLYLINE
  5
57EF
  8
0
 66
     1
 10
0.0
 20
0.0
 30
0.0
 70
    64
 71
     4
 72
     2
  0
VERTEX
  5
57F0
  8
0
 10
303.0
 20
0.4999999999999449
 30
62.00000000000027
 70
   192
  0
VERTEX
  5
57F1
  8
0
 10
603.0
 20
0.4999999999999449
 30
62.00000000000001
 70
   192
  0
VERTEX
  5
57F2
  8
0
 10
603.0
 20
0.4999999999999449
 30
78.00000000000057
 70
   192
  0
VERTEX
  5
57F3
  8
0
 10
303.0
 20
0.4999999999999449
 30
78.0000000000005
 70
   192
  0
VERTEX
  5
57F4
  8
0
 10
0.0
 20
0.0
 30
0.0
 70
   128
 71
     3
 72
     4
 73
    -1
  0
VERTEX
  5
57F5
  8
0
 10
0.0
 20
0.0
 30
0.0
 70
   128
 71
     2
 72
    -3
 73
     1
  0
SEQEND
  5
5E5E
  8
0
  0
ENDBLK
  5
5E58
  8
0
  0
BLOCK
  8
0
  2
*X20
 70
     1
 10
0.0
 20
0.0
 30
0.0
  3
*X20
  1

  0
POLYLINE
  5
57F7
  8
0
 66
     1
 10
0.0
 20
0.0
 30
0.0
 70
    64
 71
     4
 72
     2
  0
VERTEX
  5
57F8
  8
0
 10
303.0
 20
700.5
 30
78.00000000000057
 70
   192
  0
VERTEX
  5
57F9
  8
0
 10
303.0
 20
700.5
 30
81.00000000000057
 70
   192
  0
VERTEX
  5
57FA
  8
0
 10
303.0
 20
0.4999999999999449
 30
81.00000000000057
 70
   192
  0
VERTEX
  5
57FB
  8
0
 10
303.0
 20
0.5
 30
78.00000000000057
 70
   192
  0
VERTEX
  5
57FC
  8
0
 10
0.0
 20
0.0
 30
0.0
 70
   128
 71
     1
 72
     4
 73
    -3
  0
VERTEX
  5
57FD
  8
0
 10
0.0
 20
0.0
 30
0.0
 70
   128
 71
    -1
 72
     3
 73
     2
  0
SEQEND
  5
5E61
  8
0
  0
POLYLINE
  5
57FE
  8
0
 66
     1
 10
0.0
 20
0.0
 30
0.0
 70
    64
 71
     4
 72
     2
  0
VERTEX
  5
57FF
  8
0
 10
303.0
 20
0.4999999999999449
 30
78.00000000000057
 70
   192
  0
VERTEX
  5
5800
  8
0
 10
303.0
 20
0.4999999999999449
 30
81.00000000000057
 70
   192
  0
VERTEX
  5
5801
  8
0
 10
603.0
 20
0.4999999999999449
 30
81.00000000000057
 70
   192
  0
VERTEX
  5
5802
  8
0
 10
603.0
 20
0.4999999999999449
 30
78.00000000000057
 70
   192
  0
VERTEX
  5
5803
  8
0
 10
0.0
 20
0.0
 30
0.0
 70
   128
 71
     1
 72
     4
 73
    -3
  0
VERTEX
  5
5804
  8
0
 10
0.0
 20
0.0
 30
0.0
 70
   128
 71
    -1
 72
     3
 73
     2
  0
SEQEND
  5
5E62
  8
0
  0
POLYLINE
  5
5805
  8
0
 66
     1
 10
0.0
 20
0.0
 30
0.0
 70
    64
 71
     4
 72
     2
  0
VERTEX
  5
5806
  8
0
 10
603.0
 20
0.4999999999999449
 30
78.00000000000057
 70
   192
  0
VERTEX
  5
5807
  8
0
 10
603.0
 20
0.4999999999999449
 30
81.00000000000057
 70
   192
  0
VERTEX
  5
5808
  8
0
 10
603.0
 20
700.5
 30
81.00000000000057
 70
   192
  0
VERTEX
  5
5809
  8
0
 10
603.0
 20
700.5
 30
78.00000000000057
 70
   192
  0
VERTEX
  5
580A
  8
0
 10
0.0
 20
0.0
 30
0.0
 70
   128
 71
     1
 72
     4
 73
    -3
  0
VERTEX
  5
580B
  8
0
 10
0.0
 20
0.0
 30
0.0
 70
   128
 71
    -1
 72
     3
 73
     2
  0
SEQEND
  5
5E63
  8
0
  0
POLYLINE
  5
580C
  8
0
 66
     1
 10
0.0
 20
0.0
 30
0.0
 70
    64
 71
     4
 72
     2
  0
VERTEX
  5
580D
  8
0
 10
603.0
 20
700.5
 30
78.00000000000057
 70
   192
  0
VERTEX
  5
580E
  8
0
 10
603.0
 20
700.5
 30
81.00000000000057
 70
   192
  0
VERTEX
  5
580F
  8
0
 10
303.0
 20
700.5
 30
81.00000000000057
 70
   192
  0
VERTEX
  5
5810
  8
0
 10
303.0
 20
700.5
 30
78.00000000000057
 70
   192
  0
VERTEX
  5
5811
  8
0
 10
0.0
 20
0.0
 30
0.0
 70
   128
 71
     1
 72
     4
 73
    -3
  0
VERTEX
  5
5812
  8
0
 10
0.0
 20
0.0
 30
0.0
 70
   128
 71
    -1
 72
     3
 73
     2
  0
SEQEND
  5
5E64
  8
0
  0
POLYLINE
  5
5813
  8
0
 66
     1
 10
0.0
 20
0.0
 30
0.0
 70
    64
 71
     4
 72
     2
  0
VERTEX
  5
5814
  8
0
 10
303.0
 20
700.5
 30
81.00000000000057
 70
   192
  0
VERTEX
  5
5815
  8
0
 10
303.0
 20
0.5
 30
81.00000000000057
 70
   192
  0
VERTEX
  5
5816
  8
0
 10
603.0
 20
0.4999999999999449
 30
81.00000000000057
 70
   192
  0
VERTEX
  5
5817
  8
0
 10
603.0
 20
700.5
 30
81.00000000000057
 70
   192
  0
VERTEX
  5
5818
  8
0
 10
0.0
 20
0.0
 30
0.0
 70
   128
 71
     3
 72
     4
 73
    -1
  0
VERTEX
  5
5819
  8
0
 10
0.0
 20
0.0
 30
0.0
 70
   128
 71
     2
 72
    -3
 73
     1
  0
SEQEND
  5
5E65
  8
0
  0
POLYLINE
  5
581A
  8
0
 66
     1
 10
0.0
 20
0.0
 30
0.0
 70
    64
 71
     4
 72
     2
  0
VERTEX
  5
581B
  8
0
 10
303.0
 20
0.4999999999999449
 30
78.00000000000057
 70
   192
  0
VERTEX
  5
581C
  8
0
 10
603.0
 20
0.4999999999999449
 30
78.00000000000057
 70
   192
  0
VERTEX
  5
581D
  8
0
 10
603.0
 20
700.5
 30
78.00000000000057
 70
   192
  0
VERTEX
  5
581E
  8
0
 10
303.0
 20
700.5
 30
78.00000000000057
 70
   192
  0
VERTEX
  5
581F
  8
0
 10
0.0
 20
0.0
 30
0.0
 70
   128
 71
     1
 72
     4
 73
    -3
  0
VERTEX
  5
5820
  8
0
 10
0.0
 20
0.0
 30
0.0
 70
   128
 71
    -1
 72
     3
 73
     2
  0
SEQEND
  5
5E66
  8
0
  0
ENDBLK
  5
5E60
  8
0
  0
BLOCK
  8
0
  2
*X21
 70
     1
 10
0.0
 20
0.0
 30
0.0
  3
*X21
  1

  0
POLYLINE
  5
5822
  8
0
 66
     1
 10
0.0
 20
0.0
 30
0.0
 70
    64
 71
     4
 72
     2
  0
VERTEX
  5
5823
  8
0
 10
-603.0
 20
700.5
 30
78.00000000000057
 70
   192
  0
VERTEX
  5
5824
  8
0
 10
-603.0
 20
700.5
 30
81.00000000000057
 70
   192
  0
VERTEX
  5
5825
  8
0
 10
-603.0
 20
0.4999999999999449
 30
81.00000000000057
 70
   192
  0
VERTEX
  5
5826
  8
0
 10
-603.0
 20
0.5
 30
78.00000000000057
 70
   192
  0
VERTEX
  5
5827
  8
0
 10
0.0
 20
0.0
 30
0.0
 70
   128
 71
     1
 72
     4
 73
    -3
  0
VERTEX
  5
5828
  8
0
 10
0.0
 20
0.0
 30
0.0
 70
   128
 71
    -1
 72
     3
 73
     2
  0
SEQEND
  5
5E69
  8
0
  0
POLYLINE
  5
5829
  8
0
 66
     1
 10
0.0
 20
0.0
 30
0.0
 70
    64
 71
     4
 72
     2
  0
VERTEX
  5
582A
  8
0
 10
-603.0
 20
0.4999999999999449
 30
78.00000000000057
 70
   192
  0
VERTEX
  5
582B
  8
0
 10
-603.0
 20
0.4999999999999449
 30
81.00000000000057
 70
   192
  0
VERTEX
  5
582C
  8
0
 10
-303.0
 20
0.4999999999999449
 30
81.00000000000057
 70
   192
  0
VERTEX
  5
582D
  8
0
 10
-303.0
 20
0.4999999999999449
 30
78.00000000000057
 70
   192
  0
VERTEX
  5
582E
  8
0
 10
0.0
 20
0.0
 30
0.0
 70
   128
 71
     1
 72
     4
 73
    -3
  0
VERTEX
  5
582F
  8
0
 10
0.0
 20
0.0
 30
0.0
 70
   128
 71
    -1
 72
     3
 73
     2
  0
SEQEND
  5
5E6A
  8
0
  0
POLYLINE
  5
5830
  8
0
 66
     1
 10
0.0
 20
0.0
 30
0.0
 70
    64
 71
     4
 72
     2
  0
VERTEX
  5
5831
  8
0
 10
-303.0
 20
0.4999999999999449
 30
78.00000000000057
 70
   192
  0
VERTEX
  5
5832
  8
0
 10
-303.0
 20
0.4999999999999449
 30
81.00000000000057
 70
   192
  0
VERTEX
  5
5833
  8
0
 10
-303.0
 20
700.5
 30
81.00000000000057
 70
   192
  0
VERTEX
  5
5834
  8
0
 10
-303.0
 20
700.5
 30
78.00000000000057
 70
   192
  0
VERTEX
  5
5835
  8
0
 10
0.0
 20
0.0
 30
0.0
 70
   128
 71
     1
 72
     4
 73
    -3
  0
VERTEX
  5
5836
  8
0
 10
0.0
 20
0.0
 30
0.0
 70
   128
 71
    -1
 72
     3
 73
     2
  0
SEQEND
  5
5E6B
  8
0
  0
POLYLINE
  5
5837
  8
0
 66
     1
 10
0.0
 20
0.0
 30
0.0
 70
    64
 71
     4
 72
     2
  0
VERTEX
  5
5838
  8
0
 10
-303.0
 20
700.5
 30
78.00000000000057
 70
   192
  0
VERTEX
  5
5839
  8
0
 10
-303.0
 20
700.5
 30
81.00000000000057
 70
   192
  0
VERTEX
  5
583A
  8
0
 10
-603.0
 20
700.5
 30
81.00000000000057
 70
   192
  0
VERTEX
  5
583B
  8
0
 10
-603.0
 20
700.5
 30
78.00000000000057
 70
   192
  0
VERTEX
  5
583C
  8
0
 10
0.0
 20
0.0
 30
0.0
 70
   128
 71
     1
 72
     4
 73
    -3
  0
VERTEX
  5
583D
  8
0
 10
0.0
 20
0.0
 30
0.0
 70
   128
 71
    -1
 72
     3
 73
     2
  0
SEQEND
  5
5E6C
  8
0
  0
POLYLINE
  5
583E
  8
0
 66
     1
 10
0.0
 20
0.0
 30
0.0
 70
    64
 71
     4
 72
     2
  0
VERTEX
  5
583F
  8
0
 10
-603.0
 20
700.5
 30
81.00000000000057
 70
   192
  0
VERTEX
  5
5840
  8
0
 10
-603.0
 20
0.5
 30
81.00000000000057
 70
   192
  0
VERTEX
  5
5841
  8
0
 10
-303.0
 20
0.4999999999999449
 30
81.00000000000057
 70
   192
  0
VERTEX
  5
5842
  8
0
 10
-303.0
 20
700.5
 30
81.00000000000057
 70
   192
  0
VERTEX
  5
5843
  8
0
 10
0.0
 20
0.0
 30
0.0
 70
   128
 71
     3
 72
     4
 73
    -1
  0
VERTEX
  5
5844
  8
0
 10
0.0
 20
0.0
 30
0.0
 70
   128
 71
     2
 72
    -3
 73
     1
  0
SEQEND
  5
5E6D
  8
0
  0
POLYLINE
  5
5845
  8
0
 66
     1
 10
0.0
 20
0.0
 30
0.0
 70
    64
 71
     4
 72
     2
  0
VERTEX
  5
5846
  8
0
 10
-603.0
 20
0.4999999999999449
 30
78.00000000000057
 70
   192
  0
VERTEX
  5
5847
  8
0
 10
-303.0
 20
0.4999999999999449
 30
78.00000000000057
 70
   192
  0
VERTEX
  5
5848
  8
0
 10
-303.0
 20
700.5
 30
78.00000000000057
 70
   192
  0
VERTEX
  5
5849
  8
0
 10
-603.0
 20
700.5
 30
78.00000000000057
 70
   192
  0
VERTEX
  5
584A
  8
0
 10
0.0
 20
0.0
 30
0.0
 70
   128
 71
     1
 72
     4
 73
    -3
  0
VERTEX
  5
584B
  8
0
 10
0.0
 20
0.0
 30
0.0
 70
   128
 71
    -1
 72
     3
 73
     2
  0
SEQEND
  5
5E6E
  8
0
  0
ENDBLK
  5
5E68
  8
0
  0
BLOCK
  8
0
  2
*X22
 70
     1
 10
0.0
 20
0.0
 30
0.0
  3
*X22
  1

  0
POLYLINE
  5
584D
  8
0
 66
     1
 10
0.0
 20
0.0
 30
0.0
 70
    64
 71
     4
 72
     2
  0
VERTEX
  5
584E
  8
0
 10
-308.0
 20
0.4999999999999449
 30
76.25000000000057
 70
   192
  0
VERTEX
  5
584F
  8
0
 10
-358.0
 20
0.4999999999999449
 30
76.25000000000057
 70
   192
  0
VERTEX
  5
5850
  8
0
 10
-356.683475024126
 20
-9.500000000000062
 30
74.93347502412661
 70
   192
  0
VERTEX
  5
5851
  8
0
 10
-309.316524975874
 20
-9.500000000000055
 30
74.93347502412661
 70
   192
  0
VERTEX
  5
5852
  8
0
 10
0.0
 20
0.0
 30
0.0
 70
   128
 71
     3
 72
     4
 73
    -1
  0
VERTEX
  5
5853
  8
0
 10
0.0
 20
0.0
 30
0.0
 70
   128
 71
     2
 72
    -3
 73
     1
  0
SEQEND
  5
5E71
  8
0
  0
POLYLINE
  5
5854
  8
0
 66
     1
 10
0.0
 20
0.0
 30
0.0
 70
    64
 71
     4
 72
     2
  0
VERTEX
  5
5855
  8
0
 10
-358.0
 20
0.4999999999999449
 30
76.25000000000057
 70
   192
  0
VERTEX
  5
5856
  8
0
 10
-358.0
 20
0.4999999999999449
 30
63.75000000000057
 70
   192
  0
VERTEX
  5
5857
  8
0
 10
-356.683475024126
 20
-9.500000000000064
 30
65.06652497587454
 70
   192
  0
VERTEX
  5
5858
  8
0
 10
-356.683475024126
 20
-9.500000000000055
 30
74.93347502412661
 70
   192
  0
VERTEX
  5
5859
  8
0
 10
0.0
 20
0.0
 30
0.0
 70
   128
 71
     3
 72
     4
 73
    -1
  0
VERTEX
  5
585A
  8
0
 10
0.0
 20
0.0
 30
0.0
 70
   128
 71
     2
 72
    -3
 73
     1
  0
SEQEND
  5
5E72
  8
0
  0
POLYLINE
  5
585B
  8
0
 66
     1
 10
0.0
 20
0.0
 30
0.0
 70
    64
 71
     4
 72
     2
  0
VERTEX
  5
585C
  8
0
 10
-358.0
 20
0.4999999999999449
 30
63.75000000000057
 70
   192
  0
VERTEX
  5
585D
  8
0
 10
-308.0
 20
0.4999999999999449
 30
63.75000000000057
 70
   192
  0
VERTEX
  5
585E
  8
0
 10
-309.316524975874
 20
-9.500000000000059
 30
65.06652497587453
 70
   192
  0
VERTEX
  5
585F
  8
0
 10
-356.683475024126
 20
-9.500000000000055
 30
65.06652497587453
 70
   192
  0
VERTEX
  5
5860
  8
0
 10
0.0
 20
0.0
 30
0.0
 70
   128
 71
     3
 72
     4
 73
    -1
  0
VERTEX
  5
5861
  8
0
 10
0.0
 20
0.0
 30
0.0
 70
   128
 71
     2
 72
    -3
 73
     1
  0
SEQEND
  5
5E73
  8
0
  0
POLYLINE
  5
5862
  8
0
 66
     1
 10
0.0
 20
0.0
 30
0.0
 70
    64
 71
     4
 72
     2
  0
VERTEX
  5
5863
  8
0
 10
-308.0
 20
0.4999999999999449
 30
63.75000000000057
 70
   192
  0
VERTEX
  5
5864
  8
0
 10
-308.0
 20
0.4999999999999449
 30
76.25000000000057
 70
   192
  0
VERTEX
  5
5865
  8
0
 10
-309.316524975874
 20
-9.500000000000055
 30
74.93347502412661
 70
   192
  0
VERTEX
  5
5866
  8
0
 10
-309.316524975874
 20
-9.500000000000055
 30
65.06652497587453
 70
   192
  0
VERTEX
  5
5867
  8
0
 10
0.0
 20
0.0
 30
0.0
 70
   128
 71
     3
 72
     4
 73
    -1
  0
VERTEX
  5
5868
  8
0
 10
0.0
 20
0.0
 30
0.0
 70
   128
 71
     2
 72
    -3
 73
     1
  0
SEQEND
  5
5E74
  8
0
  0
POLYLINE
  5
5869
  8
0
 66
     1
 10
0.0
 20
0.0
 30
0.0
 70
    64
 71
     4
 72
     2
  0
VERTEX
  5
586A
  8
0
 10
-309.316524975874
 20
-9.500000000000055
 30
74.93347502412661
 70
   192
  0
VERTEX
  5
586B
  8
0
 10
-356.683475024126
 20
-9.500000000000055
 30
74.93347502412661
 70
   192
  0
VERTEX
  5
586C
  8
0
 10
-356.683475024126
 20
-9.500000000000055
 30
65.06652497587453
 70
   192
  0
VERTEX
  5
586D
  8
0
 10
-309.316524975874
 20
-9.500000000000055
 30
65.06652497587453
 70
   192
  0
VERTEX
  5
586E
  8
0
 10
0.0
 20
0.0
 30
0.0
 70
   128
 71
     3
 72
     4
 73
    -1
  0
VERTEX
  5
586F
  8
0
 10
0.0
 20
0.0
 30
0.0
 70
   128
 71
     2
 72
    -3
 73
     1
  0
SEQEND
  5
5E75
  8
0
  0
POLYLINE
  5
5870
  8
0
 66
     1
 10
0.0
 20
0.0
 30
0.0
 70
    64
 71
     4
 72
     2
  0
VERTEX
  5
5871
  8
0
 10
-358.0
 20
0.4999999999999449
 30
76.25000000000057
 70
   192
  0
VERTEX
  5
5872
  8
0
 10
-358.0
 20
0.4999999999999449
 30
63.75000000000057
 70
   192
  0
VERTEX
  5
5873
  8
0
 10
-308.0
 20
0.4999999999999449
 30
63.75000000000057
 70
   192
  0
VERTEX
  5
5874
  8
0
 10
-308.0
 20
0.4999999999999449
 30
76.25000000000057
 70
   192
  0
VERTEX
  5
5875
  8
0
 10
0.0
 20
0.0
 30
0.0
 70
   128
 71
     1
 72
     4
 73
    -3
  0
VERTEX
  5
5876
  8
0
 10
0.0
 20
0.0
 30
0.0
 70
   128
 71
    -1
 72
     3
 73
     2
  0
SEQEND
  5
5E76
  8
0
  0
ENDBLK
  5
5E70
  8
0
  0
BLOCK
  8
0
  2
*X23
 70
     1
 10
0.0
 20
0.0
 30
0.0
  3
*X23
  1

  0
POLYLINE
  5
5878
  8
0
 66
     1
 10
0.0
 20
0.0
 30
0.0
 70
    64
 71
     4
 72
     2
  0
VERTEX
  5
5879
  8
0
 10
308.0
 20
0.4999999999999449
 30
76.25000000000064
 70
   192
  0
VERTEX
  5
587A
  8
0
 10
308.0
 20
0.4999999999999449
 30
63.75000000000049
 70
   192
  0
VERTEX
  5
587B
  8
0
 10
309.316524975874
 20
-9.500000000000057
 30
65.06652497587446
 70
   192
  0
VERTEX
  5
587C
  8
0
 10
309.316524975874
 20
-9.500000000000055
 30
74.93347502412668
 70
   192
  0
VERTEX
  5
587D
  8
0
 10
0.0
 20
0.0
 30
0.0
 70
   128
 71
     3
 72
     4
 73
    -1
  0
VERTEX
  5
587E
  8
0
 10
0.0
 20
0.0
 30
0.0
 70
   128
 71
     2
 72
    -3
 73
     1
  0
SEQEND
  5
5E79
  8
0
  0
POLYLINE
  5
587F
  8
0
 66
     1
 10
0.0
 20
0.0
 30
0.0
 70
    64
 71
     4
 72
     2
  0
VERTEX
  5
5880
  8
0
 10
308.0
 20
0.4999999999999449
 30
63.75000000000049
 70
   192
  0
VERTEX
  5
5881
  8
0
 10
358.0
 20
0.4999999999999449
 30
63.75000000000048
 70
   192
  0
VERTEX
  5
5882
  8
0
 10
356.683475024126
 20
-9.500000000000059
 30
65.06652497587444
 70
   192
  0
VERTEX
  5
5883
  8
0
 10
309.316524975874
 20
-9.500000000000055
 30
65.06652497587446
 70
   192
  0
VERTEX
  5
5884
  8
0
 10
0.0
 20
0.0
 30
0.0
 70
   128
 71
     3
 72
     4
 73
    -1
  0
VERTEX
  5
5885
  8
0
 10
0.0
 20
0.0
 30
0.0
 70
   128
 71
     2
 72
    -3
 73
     1
  0
SEQEND
  5
5E7A
  8
0
  0
POLYLINE
  5
5886
  8
0
 66
     1
 10
0.0
 20
0.0
 30
0.0
 70
    64
 71
     4
 72
     2
  0
VERTEX
  5
5887
  8
0
 10
358.0
 20
0.4999999999999449
 30
63.75000000000048
 70
   192
  0
VERTEX
  5
5888
  8
0
 10
358.0
 20
0.4999999999999449
 30
76.25000000000065
 70
   192
  0
VERTEX
  5
5889
  8
0
 10
356.683475024126
 20
-9.500000000000066
 30
74.9334750241267
 70
   192
  0
VERTEX
  5
588A
  8
0
 10
356.683475024126
 20
-9.500000000000055
 30
65.06652497587444
 70
   192
  0
VERTEX
  5
588B
  8
0
 10
0.0
 20
0.0
 30
0.0
 70
   128
 71
     3
 72
     4
 73
    -1
  0
VERTEX
  5
588C
  8
0
 10
0.0
 20
0.0
 30
0.0
 70
   128
 71
     2
 72
    -3
 73
     1
  0
SEQEND
  5
5E7B
  8
0
  0
POLYLINE
  5
588D
  8
0
 66
     1
 10
0.0
 20
0.0
 30
0.0
 70
    64
 71
     4
 72
     2
  0
VERTEX
  5
588E
  8
0
 10
358.0
 20
0.4999999999999449
 30
76.25000000000065
 70
   192
  0
VERTEX
  5
588F
  8
0
 10
308.0
 20
0.4999999999999449
 30
76.25000000000064
 70
   192
  0
VERTEX
  5
5890
  8
0
 10
309.316524975874
 20
-9.500000000000055
 30
74.93347502412668
 70
   192
  0
VERTEX
  5
5891
  8
0
 10
356.683475024126
 20
-9.500000000000055
 30
74.9334750241267
 70
   192
  0
VERTEX
  5
5892
  8
0
 10
0.0
 20
0.0
 30
0.0
 70
   128
 71
     3
 72
     4
 73
    -1
  0
VERTEX
  5
5893
  8
0
 10
0.0
 20
0.0
 30
0.0
 70
   128
 71
     2
 72
    -3
 73
     1
  0
SEQEND
  5
5E7C
  8
0
  0
POLYLINE
  5
5894
  8
0
 66
     1
 10
0.0
 20
0.0
 30
0.0
 70
    64
 71
     4
 72
     2
  0
VERTEX
  5
5895
  8
0
 10
309.316524975874
 20
-9.500000000000055
 30
74.93347502412668
 70
   192
  0
VERTEX
  5
5896
  8
0
 10
309.316524975874
 20
-9.500000000000055
 30
65.06652497587446
 70
   192
  0
VERTEX
  5
5897
  8
0
 10
356.683475024126
 20
-9.500000000000055
 30
65.06652497587444
 70
   192
  0
VERTEX
  5
5898
  8
0
 10
356.683475024126
 20
-9.500000000000055
 30
74.9334750241267
 70
   192
  0
VERTEX
  5
5899
  8
0
 10
0.0
 20
0.0
 30
0.0
 70
   128
 71
     3
 72
     4
 73
    -1
  0
VERTEX
  5
589A
  8
0
 10
0.0
 20
0.0
 30
0.0
 70
   128
 71
     2
 72
    -3
 73
     1
  0
SEQEND
  5
5E7D
  8
0
  0
POLYLINE
  5
589B
  8
0
 66
     1
 10
0.0
 20
0.0
 30
0.0
 70
    64
 71
     4
 72
     2
  0
VERTEX
  5
589C
  8
0
 10
308.0
 20
0.4999999999999449
 30
63.75000000000049
 70
   192
  0
VERTEX
  5
589D
  8
0
 10
358.0
 20
0.4999999999999449
 30
63.75000000000048
 70
   192
  0
VERTEX
  5
589E
  8
0
 10
358.0
 20
0.4999999999999449
 30
76.25000000000065
 70
   192
  0
VERTEX
  5
589F
  8
0
 10
308.0
 20
0.4999999999999449
 30
76.25000000000064
 70
   192
  0
VERTEX
  5
58A0
  8
0
 10
0.0
 20
0.0
 30
0.0
 70
   128
 71
     1
 72
     4
 73
    -3
  0
VERTEX
  5
58A1
  8
0
 10
0.0
 20
0.0
 30
0.0
 70
   128
 71
    -1
 72
     3
 73
     2
  0
SEQEND
  5
5E7E
  8
0
  0
ENDBLK
  5
5E78
  8
0
  0
BLOCK
  8
0
  2
*X24
 70
     1
 10
0.0
 20
0.0
 30
0.0
  3
*X24
  1

  0
POLYLINE
  5
58A3
  8
0
 66
     1
 10
0.0
 20
0.0
 30
0.0
 70
    64
 71
     4
 72
     2
  0
VERTEX
  5
58A4
  8
0
 10
307.4999999999999
 20
527.9999999999999
 30
-61.99999999999975
 70
   192
  0
VERTEX
  5
58A5
  8
0
 10
307.4999999999999
 20
532.9999999999999
 30
-61.99999999999975
 70
   192
  0
VERTEX
  5
58A6
  8
0
 10
307.4999999999999
 20
532.9999999999999
 30
58.00000000000025
 70
   192
  0
VERTEX
  5
58A7
  8
0
 10
307.4999999999999
 20
527.9999999999999
 30
58.00000000000025
 70
   192
  0
VERTEX
  5
58A8
  8
0
 10
0.0
 20
0.0
 30
0.0
 70
   128
 71
     1
 72
     4
 73
    -3
  0
VERTEX
  5
58A9
  8
0
 10
0.0
 20
0.0
 30
0.0
 70
   128
 71
    -1
 72
     3
 73
     2
  0
SEQEND
  5
5E81
  8
0
  0
POLYLINE
  5
58AA
  8
0
 66
     1
 10
0.0
 20
0.0
 30
0.0
 70
    64
 71
     4
 72
     2
  0
VERTEX
  5
58AB
  8
0
 10
307.4999999999999
 20
527.9999999999999
 30
58.00000000000025
 70
   192
  0
VERTEX
  5
58AC
  8
0
 10
307.4999999999999
 20
532.9999999999999
 30
58.00000000000025
 70
   192
  0
VERTEX
  5
58AD
  8
0
 10
584.4999999999999
 20
532.9999999999999
 30
58.00000000000021
 70
   192
  0
VERTEX
  5
58AE
  8
0
 10
584.4999999999999
 20
527.9999999999999
 30
58.00000000000021
 70
   192
  0
VERTEX
  5
58AF
  8
0
 10
0.0
 20
0.0
 30
0.0
 70
   128
 71
     1
 72
     4
 73
    -3
  0
VERTEX
  5
58B0
  8
0
 10
0.0
 20
0.0
 30
0.0
 70
   128
 71
    -1
 72
     3
 73
     2
  0
SEQEND
  5
5E82
  8
0
  0
POLYLINE
  5
58B1
  8
0
 66
     1
 10
0.0
 20
0.0
 30
0.0
 70
    64
 71
     4
 72
     2
  0
VERTEX
  5
58B2
  8
0
 10
584.4999999999999
 20
527.9999999999999
 30
58.00000000000021
 70
   192
  0
VERTEX
  5
58B3
  8
0
 10
584.4999999999999
 20
532.9999999999999
 30
58.00000000000021
 70
   192
  0
VERTEX
  5
58B4
  8
0
 10
584.4999999999999
 20
532.9999999999999
 30
-61.99999999999979
 70
   192
  0
VERTEX
  5
58B5
  8
0
 10
584.4999999999999
 20
527.9999999999999
 30
-61.99999999999979
 70
   192
  0
VERTEX
  5
58B6
  8
0
 10
0.0
 20
0.0
 30
0.0
 70
   128
 71
     1
 72
     4
 73
    -3
  0
VERTEX
  5
58B7
  8
0
 10
0.0
 20
0.0
 30
0.0
 70
   128
 71
    -1
 72
     3
 73
     2
  0
SEQEND
  5
5E83
  8
0
  0
POLYLINE
  5
58B8
  8
0
 66
     1
 10
0.0
 20
0.0
 30
0.0
 70
    64
 71
     4
 72
     2
  0
VERTEX
  5
58B9
  8
0
 10
584.4999999999999
 20
527.9999999999999
 30
-61.99999999999979
 70
   192
  0
VERTEX
  5
58BA
  8
0
 10
584.4999999999999
 20
532.9999999999999
 30
-61.99999999999979
 70
   192
  0
VERTEX
  5
58BB
  8
0
 10
307.4999999999999
 20
532.9999999999999
 30
-61.99999999999975
 70
   192
  0
VERTEX
  5
58BC
  8
0
 10
307.4999999999999
 20
527.9999999999999
 30
-61.99999999999975
 70
   192
  0
VERTEX
  5
58BD
  8
0
 10
0.0
 20
0.0
 30
0.0
 70
   128
 71
     1
 72
     4
 73
    -3
  0
VERTEX
  5
58BE
  8
0
 10
0.0
 20
0.0
 30
0.0
 70
   128
 71
    -1
 72
     3
 73
     2
  0
SEQEND
  5
5E84
  8
0
  0
POLYLINE
  5
58BF
  8
0
 66
     1
 10
0.0
 20
0.0
 30
0.0
 70
    64
 71
     4
 72
     2
  0
VERTEX
  5
58C0
  8
0
 10
307.4999999999999
 20
532.9999999999999
 30
-61.99999999999975
 70
   192
  0
VERTEX
  5
58C1
  8
0
 10
307.4999999999999
 20
532.9999999999999
 30
58.00000000000025
 70
   192
  0
VERTEX
  5
58C2
  8
0
 10
584.4999999999999
 20
532.9999999999999
 30
58.00000000000021
 70
   192
  0
VERTEX
  5
58C3
  8
0
 10
584.4999999999999
 20
532.9999999999999
 30
-61.99999999999979
 70
   192
  0
VERTEX
  5
58C4
  8
0
 10
0.0
 20
0.0
 30
0.0
 70
   128
 71
     3
 72
     4
 73
    -1
  0
VERTEX
  5
58C5
  8
0
 10
0.0
 20
0.0
 30
0.0
 70
   128
 71
     2
 72
    -3
 73
     1
  0
SEQEND
  5
5E85
  8
0
  0
POLYLINE
  5
58C6
  8
0
 66
     1
 10
0.0
 20
0.0
 30
0.0
 70
    64
 71
     4
 72
     2
  0
VERTEX
  5
58C7
  8
0
 10
307.4999999999999
 20
527.9999999999999
 30
58.00000000000025
 70
   192
  0
VERTEX
  5
58C8
  8
0
 10
584.4999999999999
 20
527.9999999999999
 30
58.00000000000021
 70
   192
  0
VERTEX
  5
58C9
  8
0
 10
584.4999999999999
 20
527.9999999999999
 30
-61.99999999999979
 70
   192
  0
VERTEX
  5
58CA
  8
0
 10
307.4999999999999
 20
527.9999999999999
 30
-61.99999999999975
 70
   192
  0
VERTEX
  5
58CB
  8
0
 10
0.0
 20
0.0
 30
0.0
 70
   128
 71
     1
 72
     4
 73
    -3
  0
VERTEX
  5
58CC
  8
0
 10
0.0
 20
0.0
 30
0.0
 70
   128
 71
    -1
 72
     3
 73
     2
  0
SEQEND
  5
5E86
  8
0
  0
ENDBLK
  5
5E80
  8
0
  0
BLOCK
  8
0
  2
*X25
 70
     1
 10
0.0
 20
0.0
 30
0.0
  3
*X25
  1

  0
POLYLINE
  5
58CE
  8
0
 66
     1
 10
0.0
 20
0.0
 30
0.0
 70
    64
 71
     4
 72
     2
  0
VERTEX
  5
58CF
  8
0
 10
307.4999999999999
 20
345.4999999999999
 30
-61.99999999999975
 70
   192
  0
VERTEX
  5
58D0
  8
0
 10
307.4999999999999
 20
350.4999999999999
 30
-61.99999999999975
 70
   192
  0
VERTEX
  5
58D1
  8
0
 10
307.4999999999999
 20
350.4999999999999
 30
58.00000000000025
 70
   192
  0
VERTEX
  5
58D2
  8
0
 10
307.4999999999999
 20
345.4999999999999
 30
58.00000000000025
 70
   192
  0
VERTEX
  5
58D3
  8
0
 10
0.0
 20
0.0
 30
0.0
 70
   128
 71
     1
 72
     4
 73
    -3
  0
VERTEX
  5
58D4
  8
0
 10
0.0
 20
0.0
 30
0.0
 70
   128
 71
    -1
 72
     3
 73
     2
  0
SEQEND
  5
5E89
  8
0
  0
POLYLINE
  5
58D5
  8
0
 66
     1
 10
0.0
 20
0.0
 30
0.0
 70
    64
 71
     4
 72
     2
  0
VERTEX
  5
58D6
  8
0
 10
307.4999999999999
 20
345.4999999999999
 30
58.00000000000025
 70
   192
  0
VERTEX
  5
58D7
  8
0
 10
307.4999999999999
 20
350.4999999999999
 30
58.00000000000025
 70
   192
  0
VERTEX
  5
58D8
  8
0
 10
584.4999999999999
 20
350.4999999999999
 30
58.00000000000021
 70
   192
  0
VERTEX
  5
58D9
  8
0
 10
584.4999999999999
 20
345.4999999999999
 30
58.00000000000021
 70
   192
  0
VERTEX
  5
58DA
  8
0
 10
0.0
 20
0.0
 30
0.0
 70
   128
 71
     1
 72
     4
 73
    -3
  0
VERTEX
  5
58DB
  8
0
 10
0.0
 20
0.0
 30
0.0
 70
   128
 71
    -1
 72
     3
 73
     2
  0
SEQEND
  5
5E8A
  8
0
  0
POLYLINE
  5
58DC
  8
0
 66
     1
 10
0.0
 20
0.0
 30
0.0
 70
    64
 71
     4
 72
     2
  0
VERTEX
  5
58DD
  8
0
 10
584.4999999999999
 20
345.4999999999999
 30
58.00000000000021
 70
   192
  0
VERTEX
  5
58DE
  8
0
 10
584.4999999999999
 20
350.4999999999999
 30
58.00000000000021
 70
   192
  0
VERTEX
  5
58DF
  8
0
 10
584.4999999999999
 20
350.4999999999999
 30
-61.99999999999979
 70
   192
  0
VERTEX
  5
58E0
  8
0
 10
584.4999999999999
 20
345.4999999999999
 30
-61.99999999999979
 70
   192
  0
VERTEX
  5
58E1
  8
0
 10
0.0
 20
0.0
 30
0.0
 70
   128
 71
     1
 72
     4
 73
    -3
  0
VERTEX
  5
58E2
  8
0
 10
0.0
 20
0.0
 30
0.0
 70
   128
 71
    -1
 72
     3
 73
     2
  0
SEQEND
  5
5E8B
  8
0
  0
POLYLINE
  5
58E3
  8
0
 66
     1
 10
0.0
 20
0.0
 30
0.0
 70
    64
 71
     4
 72
     2
  0
VERTEX
  5
58E4
  8
0
 10
584.4999999999999
 20
345.4999999999999
 30
-61.99999999999979
 70
   192
  0
VERTEX
  5
58E5
  8
0
 10
584.4999999999999
 20
350.4999999999999
 30
-61.99999999999979
 70
   192
  0
VERTEX
  5
58E6
  8
0
 10
307.4999999999999
 20
350.4999999999999
 30
-61.99999999999975
 70
   192
  0
VERTEX
  5
58E7
  8
0
 10
307.4999999999999
 20
345.4999999999999
 30
-61.99999999999975
 70
   192
  0
VERTEX
  5
58E8
  8
0
 10
0.0
 20
0.0
 30
0.0
 70
   128
 71
     1
 72
     4
 73
    -3
  0
VERTEX
  5
58E9
  8
0
 10
0.0
 20
0.0
 30
0.0
 70
   128
 71
    -1
 72
     3
 73
     2
  0
SEQEND
  5
5E8C
  8
0
  0
POLYLINE
  5
58EA
  8
0
 66
     1
 10
0.0
 20
0.0
 30
0.0
 70
    64
 71
     4
 72
     2
  0
VERTEX
  5
58EB
  8
0
 10
307.4999999999999
 20
350.4999999999999
 30
-61.99999999999975
 70
   192
  0
VERTEX
  5
58EC
  8
0
 10
307.4999999999999
 20
350.4999999999999
 30
58.00000000000025
 70
   192
  0
VERTEX
  5
58ED
  8
0
 10
584.4999999999999
 20
350.4999999999999
 30
58.00000000000021
 70
   192
  0
VERTEX
  5
58EE
  8
0
 10
584.4999999999999
 20
350.4999999999999
 30
-61.99999999999979
 70
   192
  0
VERTEX
  5
58EF
  8
0
 10
0.0
 20
0.0
 30
0.0
 70
   128
 71
     3
 72
     4
 73
    -1
  0
VERTEX
  5
58F0
  8
0
 10
0.0
 20
0.0
 30
0.0
 70
   128
 71
     2
 72
    -3
 73
     1
  0
SEQEND
  5
5E8D
  8
0
  0
POLYLINE
  5
58F1
  8
0
 66
     1
 10
0.0
 20
0.0
 30
0.0
 70
    64
 71
     4
 72
     2
  0
VERTEX
  5
58F2
  8
0
 10
307.4999999999999
 20
345.4999999999999
 30
58.00000000000025
 70
   192
  0
VERTEX
  5
58F3
  8
0
 10
584.4999999999999
 20
345.4999999999999
 30
58.00000000000021
 70
   192
  0
VERTEX
  5
58F4
  8
0
 10
584.4999999999999
 20
345.4999999999999
 30
-61.99999999999979
 70
   192
  0
VERTEX
  5
58F5
  8
0
 10
307.4999999999999
 20
345.4999999999999
 30
-61.99999999999975
 70
   192
  0
VERTEX
  5
58F6
  8
0
 10
0.0
 20
0.0
 30
0.0
 70
   128
 71
     1
 72
     4
 73
    -3
  0
VERTEX
  5
58F7
  8
0
 10
0.0
 20
0.0
 30
0.0
 70
   128
 71
    -1
 72
     3
 73
     2
  0
SEQEND
  5
5E8E
  8
0
  0
ENDBLK
  5
5E88
  8
0
  0
BLOCK
  8
0
  2
*X26
 70
     1
 10
0.0
 20
0.0
 30
0.0
  3
*X26
  1

  0
POLYLINE
  5
58F9
  8
0
 66
     1
 10
0.0
 20
0.0
 30
0.0
 70
    64
 71
     4
 72
     2
  0
VERTEX
  5
58FA
  8
0
 10
307.4999999999999
 20
162.9999999999999
 30
-61.99999999999975
 70
   192
  0
VERTEX
  5
58FB
  8
0
 10
307.4999999999999
 20
167.9999999999999
 30
-61.99999999999975
 70
   192
  0
VERTEX
  5
58FC
  8
0
 10
307.4999999999999
 20
167.9999999999999
 30
58.00000000000025
 70
   192
  0
VERTEX
  5
58FD
  8
0
 10
307.4999999999999
 20
162.9999999999999
 30
58.00000000000025
 70
   192
  0
VERTEX
  5
58FE
  8
0
 10
0.0
 20
0.0
 30
0.0
 70
   128
 71
     1
 72
     4
 73
    -3
  0
VERTEX
  5
58FF
  8
0
 10
0.0
 20
0.0
 30
0.0
 70
   128
 71
    -1
 72
     3
 73
     2
  0
SEQEND
  5
5E91
  8
0
  0
POLYLINE
  5
5900
  8
0
 66
     1
 10
0.0
 20
0.0
 30
0.0
 70
    64
 71
     4
 72
     2
  0
VERTEX
  5
5901
  8
0
 10
307.4999999999999
 20
162.9999999999999
 30
58.00000000000025
 70
   192
  0
VERTEX
  5
5902
  8
0
 10
307.4999999999999
 20
167.9999999999999
 30
58.00000000000025
 70
   192
  0
VERTEX
  5
5903
  8
0
 10
584.4999999999999
 20
167.9999999999999
 30
58.00000000000021
 70
   192
  0
VERTEX
  5
5904
  8
0
 10
584.4999999999999
 20
162.9999999999999
 30
58.00000000000021
 70
   192
  0
VERTEX
  5
5905
  8
0
 10
0.0
 20
0.0
 30
0.0
 70
   128
 71
     1
 72
     4
 73
    -3
  0
VERTEX
  5
5906
  8
0
 10
0.0
 20
0.0
 30
0.0
 70
   128
 71
    -1
 72
     3
 73
     2
  0
SEQEND
  5
5E92
  8
0
  0
POLYLINE
  5
5907
  8
0
 66
     1
 10
0.0
 20
0.0
 30
0.0
 70
    64
 71
     4
 72
     2
  0
VERTEX
  5
5908
  8
0
 10
584.4999999999999
 20
162.9999999999999
 30
58.00000000000021
 70
   192
  0
VERTEX
  5
5909
  8
0
 10
584.4999999999999
 20
167.9999999999999
 30
58.00000000000021
 70
   192
  0
VERTEX
  5
590A
  8
0
 10
584.4999999999999
 20
167.9999999999999
 30
-61.99999999999979
 70
   192
  0
VERTEX
  5
590B
  8
0
 10
584.4999999999999
 20
162.9999999999999
 30
-61.99999999999979
 70
   192
  0
VERTEX
  5
590C
  8
0
 10
0.0
 20
0.0
 30
0.0
 70
   128
 71
     1
 72
     4
 73
    -3
  0
VERTEX
  5
590D
  8
0
 10
0.0
 20
0.0
 30
0.0
 70
   128
 71
    -1
 72
     3
 73
     2
  0
SEQEND
  5
5E93
  8
0
  0
POLYLINE
  5
590E
  8
0
 66
     1
 10
0.0
 20
0.0
 30
0.0
 70
    64
 71
     4
 72
     2
  0
VERTEX
  5
590F
  8
0
 10
584.4999999999999
 20
162.9999999999999
 30
-61.99999999999979
 70
   192
  0
VERTEX
  5
5910
  8
0
 10
584.4999999999999
 20
167.9999999999999
 30
-61.99999999999979
 70
   192
  0
VERTEX
  5
5911
  8
0
 10
307.4999999999999
 20
167.9999999999999
 30
-61.99999999999975
 70
   192
  0
VERTEX
  5
5912
  8
0
 10
307.4999999999999
 20
162.9999999999999
 30
-61.99999999999975
 70
   192
  0
VERTEX
  5
5913
  8
0
 10
0.0
 20
0.0
 30
0.0
 70
   128
 71
     1
 72
     4
 73
    -3
  0
VERTEX
  5
5914
  8
0
 10
0.0
 20
0.0
 30
0.0
 70
   128
 71
    -1
 72
     3
 73
     2
  0
SEQEND
  5
5E94
  8
0
  0
POLYLINE
  5
5915
  8
0
 66
     1
 10
0.0
 20
0.0
 30
0.0
 70
    64
 71
     4
 72
     2
  0
VERTEX
  5
5916
  8
0
 10
307.4999999999999
 20
167.9999999999999
 30
-61.99999999999975
 70
   192
  0
VERTEX
  5
5917
  8
0
 10
307.4999999999999
 20
167.9999999999999
 30
58.00000000000025
 70
   192
  0
VERTEX
  5
5918
  8
0
 10
584.4999999999999
 20
167.9999999999999
 30
58.00000000000021
 70
   192
  0
VERTEX
  5
5919
  8
0
 10
584.4999999999999
 20
167.9999999999999
 30
-61.99999999999979
 70
   192
  0
VERTEX
  5
591A
  8
0
 10
0.0
 20
0.0
 30
0.0
 70
   128
 71
     3
 72
     4
 73
    -1
  0
VERTEX
  5
591B
  8
0
 10
0.0
 20
0.0
 30
0.0
 70
   128
 71
     2
 72
    -3
 73
     1
  0
SEQEND
  5
5E95
  8
0
  0
POLYLINE
  5
591C
  8
0
 66
     1
 10
0.0
 20
0.0
 30
0.0
 70
    64
 71
     4
 72
     2
  0
VERTEX
  5
591D
  8
0
 10
307.4999999999999
 20
162.9999999999999
 30
58.00000000000025
 70
   192
  0
VERTEX
  5
591E
  8
0
 10
584.4999999999999
 20
162.9999999999999
 30
58.00000000000021
 70
   192
  0
VERTEX
  5
591F
  8
0
 10
584.4999999999999
 20
162.9999999999999
 30
-61.99999999999979
 70
   192
  0
VERTEX
  5
5920
  8
0
 10
307.4999999999999
 20
162.9999999999999
 30
-61.99999999999975
 70
   192
  0
VERTEX
  5
5921
  8
0
 10
0.0
 20
0.0
 30
0.0
 70
   128
 71
     1
 72
     4
 73
    -3
  0
VERTEX
  5
5922
  8
0
 10
0.0
 20
0.0
 30
0.0
 70
   128
 71
    -1
 72
     3
 73
     2
  0
SEQEND
  5
5E96
  8
0
  0
ENDBLK
  5
5E90
  8
0
  0
BLOCK
  8
0
  2
*X27
 70
     1
 10
0.0
 20
0.0
 30
0.0
  3
*X27
  1

  0
POLYLINE
  5
5924
  8
0
 66
     1
 10
0.0
 20
0.0
 30
0.0
 70
    64
 71
     4
 72
     2
  0
VERTEX
  5
5925
  8
0
 10
-584.5000000000001
 20
527.9999999999999
 30
-61.99999999999975
 70
   192
  0
VERTEX
  5
5926
  8
0
 10
-584.5000000000001
 20
532.9999999999999
 30
-61.99999999999975
 70
   192
  0
VERTEX
  5
5927
  8
0
 10
-584.5000000000001
 20
532.9999999999999
 30
58.00000000000025
 70
   192
  0
VERTEX
  5
5928
  8
0
 10
-584.5000000000001
 20
527.9999999999999
 30
58.00000000000025
 70
   192
  0
VERTEX
  5
5929
  8
0
 10
0.0
 20
0.0
 30
0.0
 70
   128
 71
     1
 72
     4
 73
    -3
  0
VERTEX
  5
592A
  8
0
 10
0.0
 20
0.0
 30
0.0
 70
   128
 71
    -1
 72
     3
 73
     2
  0
SEQEND
  5
5E99
  8
0
  0
POLYLINE
  5
592B
  8
0
 66
     1
 10
0.0
 20
0.0
 30
0.0
 70
    64
 71
     4
 72
     2
  0
VERTEX
  5
592C
  8
0
 10
-584.5000000000001
 20
527.9999999999999
 30
58.00000000000025
 70
   192
  0
VERTEX
  5
592D
  8
0
 10
-584.5000000000001
 20
532.9999999999999
 30
58.00000000000025
 70
   192
  0
VERTEX
  5
592E
  8
0
 10
-307.5000000000001
 20
532.9999999999999
 30
58.00000000000021
 70
   192
  0
VERTEX
  5
592F
  8
0
 10
-307.5000000000001
 20
527.9999999999999
 30
58.00000000000021
 70
   192
  0
VERTEX
  5
5930
  8
0
 10
0.0
 20
0.0
 30
0.0
 70
   128
 71
     1
 72
     4
 73
    -3
  0
VERTEX
  5
5931
  8
0
 10
0.0
 20
0.0
 30
0.0
 70
   128
 71
    -1
 72
     3
 73
     2
  0
SEQEND
  5
5E9A
  8
0
  0
POLYLINE
  5
5932
  8
0
 66
     1
 10
0.0
 20
0.0
 30
0.0
 70
    64
 71
     4
 72
     2
  0
VERTEX
  5
5933
  8
0
 10
-307.5000000000001
 20
527.9999999999999
 30
58.00000000000021
 70
   192
  0
VERTEX
  5
5934
  8
0
 10
-307.5000000000001
 20
532.9999999999999
 30
58.00000000000021
 70
   192
  0
VERTEX
  5
5935
  8
0
 10
-307.5000000000001
 20
532.9999999999999
 30
-61.99999999999979
 70
   192
  0
VERTEX
  5
5936
  8
0
 10
-307.5000000000001
 20
527.9999999999999
 30
-61.99999999999979
 70
   192
  0
VERTEX
  5
5937
  8
0
 10
0.0
 20
0.0
 30
0.0
 70
   128
 71
     1
 72
     4
 73
    -3
  0
VERTEX
  5
5938
  8
0
 10
0.0
 20
0.0
 30
0.0
 70
   128
 71
    -1
 72
     3
 73
     2
  0
SEQEND
  5
5E9B
  8
0
  0
POLYLINE
  5
5939
  8
0
 66
     1
 10
0.0
 20
0.0
 30
0.0
 70
    64
 71
     4
 72
     2
  0
VERTEX
  5
593A
  8
0
 10
-307.5000000000001
 20
527.9999999999999
 30
-61.99999999999979
 70
   192
  0
VERTEX
  5
593B
  8
0
 10
-307.5000000000001
 20
532.9999999999999
 30
-61.99999999999979
 70
   192
  0
VERTEX
  5
593C
  8
0
 10
-584.5000000000001
 20
532.9999999999999
 30
-61.99999999999975
 70
   192
  0
VERTEX
  5
593D
  8
0
 10
-584.5000000000001
 20
527.9999999999999
 30
-61.99999999999975
 70
   192
  0
VERTEX
  5
593E
  8
0
 10
0.0
 20
0.0
 30
0.0
 70
   128
 71
     1
 72
     4
 73
    -3
  0
VERTEX
  5
593F
  8
0
 10
0.0
 20
0.0
 30
0.0
 70
   128
 71
    -1
 72
     3
 73
     2
  0
SEQEND
  5
5E9C
  8
0
  0
POLYLINE
  5
5940
  8
0
 66
     1
 10
0.0
 20
0.0
 30
0.0
 70
    64
 71
     4
 72
     2
  0
VERTEX
  5
5941
  8
0
 10
-584.5000000000001
 20
532.9999999999999
 30
-61.99999999999975
 70
   192
  0
VERTEX
  5
5942
  8
0
 10
-584.5000000000001
 20
532.9999999999999
 30
58.00000000000025
 70
   192
  0
VERTEX
  5
5943
  8
0
 10
-307.5000000000001
 20
532.9999999999999
 30
58.00000000000021
 70
   192
  0
VERTEX
  5
5944
  8
0
 10
-307.5000000000001
 20
532.9999999999999
 30
-61.99999999999979
 70
   192
  0
VERTEX
  5
5945
  8
0
 10
0.0
 20
0.0
 30
0.0
 70
   128
 71
     3
 72
     4
 73
    -1
  0
VERTEX
  5
5946
  8
0
 10
0.0
 20
0.0
 30
0.0
 70
   128
 71
     2
 72
    -3
 73
     1
  0
SEQEND
  5
5E9D
  8
0
  0
POLYLINE
  5
5947
  8
0
 66
     1
 10
0.0
 20
0.0
 30
0.0
 70
    64
 71
     4
 72
     2
  0
VERTEX
  5
5948
  8
0
 10
-584.5000000000001
 20
527.9999999999999
 30
58.00000000000025
 70
   192
  0
VERTEX
  5
5949
  8
0
 10
-307.5000000000001
 20
527.9999999999999
 30
58.00000000000021
 70
   192
  0
VERTEX
  5
594A
  8
0
 10
-307.5000000000001
 20
527.9999999999999
 30
-61.99999999999979
 70
   192
  0
VERTEX
  5
594B
  8
0
 10
-584.5000000000001
 20
527.9999999999999
 30
-61.99999999999975
 70
   192
  0
VERTEX
  5
594C
  8
0
 10
0.0
 20
0.0
 30
0.0
 70
   128
 71
     1
 72
     4
 73
    -3
  0
VERTEX
  5
594D
  8
0
 10
0.0
 20
0.0
 30
0.0
 70
   128
 71
    -1
 72
     3
 73
     2
  0
SEQEND
  5
5E9E
  8
0
  0
ENDBLK
  5
5E98
  8
0
  0
BLOCK
  8
0
  2
*X28
 70
     1
 10
0.0
 20
0.0
 30
0.0
  3
*X28
  1

  0
POLYLINE
  5
594F
  8
0
 66
     1
 10
0.0
 20
0.0
 30
0.0
 70
    64
 71
     4
 72
     2
  0
VERTEX
  5
5950
  8
0
 10
-584.5000000000001
 20
345.4999999999999
 30
-61.99999999999975
 70
   192
  0
VERTEX
  5
5951
  8
0
 10
-584.5000000000001
 20
350.4999999999999
 30
-61.99999999999975
 70
   192
  0
VERTEX
  5
5952
  8
0
 10
-584.5000000000001
 20
350.4999999999999
 30
58.00000000000025
 70
   192
  0
VERTEX
  5
5953
  8
0
 10
-584.5000000000001
 20
345.4999999999999
 30
58.00000000000025
 70
   192
  0
VERTEX
  5
5954
  8
0
 10
0.0
 20
0.0
 30
0.0
 70
   128
 71
     1
 72
     4
 73
    -3
  0
VERTEX
  5
5955
  8
0
 10
0.0
 20
0.0
 30
0.0
 70
   128
 71
    -1
 72
     3
 73
     2
  0
SEQEND
  5
5EA1
  8
0
  0
POLYLINE
  5
5956
  8
0
 66
     1
 10
0.0
 20
0.0
 30
0.0
 70
    64
 71
     4
 72
     2
  0
VERTEX
  5
5957
  8
0
 10
-584.5000000000001
 20
345.4999999999999
 30
58.00000000000025
 70
   192
  0
VERTEX
  5
5958
  8
0
 10
-584.5000000000001
 20
350.4999999999999
 30
58.00000000000025
 70
   192
  0
VERTEX
  5
5959
  8
0
 10
-307.5000000000001
 20
350.4999999999999
 30
58.00000000000021
 70
   192
  0
VERTEX
  5
595A
  8
0
 10
-307.5000000000001
 20
345.4999999999999
 30
58.00000000000021
 70
   192
  0
VERTEX
  5
595B
  8
0
 10
0.0
 20
0.0
 30
0.0
 70
   128
 71
     1
 72
     4
 73
    -3
  0
VERTEX
  5
595C
  8
0
 10
0.0
 20
0.0
 30
0.0
 70
   128
 71
    -1
 72
     3
 73
     2
  0
SEQEND
  5
5EA2
  8
0
  0
POLYLINE
  5
595D
  8
0
 66
     1
 10
0.0
 20
0.0
 30
0.0
 70
    64
 71
     4
 72
     2
  0
VERTEX
  5
595E
  8
0
 10
-307.5000000000001
 20
345.4999999999999
 30
58.00000000000021
 70
   192
  0
VERTEX
  5
595F
  8
0
 10
-307.5000000000001
 20
350.4999999999999
 30
58.00000000000021
 70
   192
  0
VERTEX
  5
5960
  8
0
 10
-307.5000000000001
 20
350.4999999999999
 30
-61.99999999999979
 70
   192
  0
VERTEX
  5
5961
  8
0
 10
-307.5000000000001
 20
345.4999999999999
 30
-61.99999999999979
 70
   192
  0
VERTEX
  5
5962
  8
0
 10
0.0
 20
0.0
 30
0.0
 70
   128
 71
     1
 72
     4
 73
    -3
  0
VERTEX
  5
5963
  8
0
 10
0.0
 20
0.0
 30
0.0
 70
   128
 71
    -1
 72
     3
 73
     2
  0
SEQEND
  5
5EA3
  8
0
  0
POLYLINE
  5
5964
  8
0
 66
     1
 10
0.0
 20
0.0
 30
0.0
 70
    64
 71
     4
 72
     2
  0
VERTEX
  5
5965
  8
0
 10
-307.5000000000001
 20
345.4999999999999
 30
-61.99999999999979
 70
   192
  0
VERTEX
  5
5966
  8
0
 10
-307.5000000000001
 20
350.4999999999999
 30
-61.99999999999979
 70
   192
  0
VERTEX
  5
5967
  8
0
 10
-584.5000000000001
 20
350.4999999999999
 30
-61.99999999999975
 70
   192
  0
VERTEX
  5
5968
  8
0
 10
-584.5000000000001
 20
345.4999999999999
 30
-61.99999999999975
 70
   192
  0
VERTEX
  5
5969
  8
0
 10
0.0
 20
0.0
 30
0.0
 70
   128
 71
     1
 72
     4
 73
    -3
  0
VERTEX
  5
596A
  8
0
 10
0.0
 20
0.0
 30
0.0
 70
   128
 71
    -1
 72
     3
 73
     2
  0
SEQEND
  5
5EA4
  8
0
  0
POLYLINE
  5
596B
  8
0
 66
     1
 10
0.0
 20
0.0
 30
0.0
 70
    64
 71
     4
 72
     2
  0
VERTEX
  5
596C
  8
0
 10
-584.5000000000001
 20
350.4999999999999
 30
-61.99999999999975
 70
   192
  0
VERTEX
  5
596D
  8
0
 10
-584.5000000000001
 20
350.4999999999999
 30
58.00000000000025
 70
   192
  0
VERTEX
  5
596E
  8
0
 10
-307.5000000000001
 20
350.4999999999999
 30
58.00000000000021
 70
   192
  0
VERTEX
  5
596F
  8
0
 10
-307.5000000000001
 20
350.4999999999999
 30
-61.99999999999979
 70
   192
  0
VERTEX
  5
5970
  8
0
 10
0.0
 20
0.0
 30
0.0
 70
   128
 71
     3
 72
     4
 73
    -1
  0
VERTEX
  5
5971
  8
0
 10
0.0
 20
0.0
 30
0.0
 70
   128
 71
     2
 72
    -3
 73
     1
  0
SEQEND
  5
5EA5
  8
0
  0
POLYLINE
  5
5972
  8
0
 66
     1
 10
0.0
 20
0.0
 30
0.0
 70
    64
 71
     4
 72
     2
  0
VERTEX
  5
5973
  8
0
 10
-584.5000000000001
 20
345.4999999999999
 30
58.00000000000025
 70
   192
  0
VERTEX
  5
5974
  8
0
 10
-307.5000000000001
 20
345.4999999999999
 30
58.00000000000021
 70
   192
  0
VERTEX
  5
5975
  8
0
 10
-307.5000000000001
 20
345.4999999999999
 30
-61.99999999999979
 70
   192
  0
VERTEX
  5
5976
  8
0
 10
-584.5000000000001
 20
345.4999999999999
 30
-61.99999999999975
 70
   192
  0
VERTEX
  5
5977
  8
0
 10
0.0
 20
0.0
 30
0.0
 70
   128
 71
     1
 72
     4
 73
    -3
  0
VERTEX
  5
5978
  8
0
 10
0.0
 20
0.0
 30
0.0
 70
   128
 71
    -1
 72
     3
 73
     2
  0
SEQEND
  5
5EA6
  8
0
  0
ENDBLK
  5
5EA0
  8
0
  0
BLOCK
  8
0
  2
*X29
 70
     1
 10
0.0
 20
0.0
 30
0.0
  3
*X29
  1

  0
POLYLINE
  5
597A
  8
0
 66
     1
 10
0.0
 20
0.0
 30
0.0
 70
    64
 71
     4
 72
     2
  0
VERTEX
  5
597B
  8
0
 10
-584.5000000000001
 20
162.9999999999999
 30
-61.99999999999975
 70
   192
  0
VERTEX
  5
597C
  8
0
 10
-584.5000000000001
 20
167.9999999999999
 30
-61.99999999999975
 70
   192
  0
VERTEX
  5
597D
  8
0
 10
-584.5000000000001
 20
167.9999999999999
 30
58.00000000000025
 70
   192
  0
VERTEX
  5
597E
  8
0
 10
-584.5000000000001
 20
162.9999999999999
 30
58.00000000000025
 70
   192
  0
VERTEX
  5
597F
  8
0
 10
0.0
 20
0.0
 30
0.0
 70
   128
 71
     1
 72
     4
 73
    -3
  0
VERTEX
  5
5980
  8
0
 10
0.0
 20
0.0
 30
0.0
 70
   128
 71
    -1
 72
     3
 73
     2
  0
SEQEND
  5
5EA9
  8
0
  0
POLYLINE
  5
5981
  8
0
 66
     1
 10
0.0
 20
0.0
 30
0.0
 70
    64
 71
     4
 72
     2
  0
VERTEX
  5
5982
  8
0
 10
-584.5000000000001
 20
162.9999999999999
 30
58.00000000000025
 70
   192
  0
VERTEX
  5
5983
  8
0
 10
-584.5000000000001
 20
167.9999999999999
 30
58.00000000000025
 70
   192
  0
VERTEX
  5
5984
  8
0
 10
-307.5000000000001
 20
167.9999999999999
 30
58.00000000000021
 70
   192
  0
VERTEX
  5
5985
  8
0
 10
-307.5000000000001
 20
162.9999999999999
 30
58.00000000000021
 70
   192
  0
VERTEX
  5
5986
  8
0
 10
0.0
 20
0.0
 30
0.0
 70
   128
 71
     1
 72
     4
 73
    -3
  0
VERTEX
  5
5987
  8
0
 10
0.0
 20
0.0
 30
0.0
 70
   128
 71
    -1
 72
     3
 73
     2
  0
SEQEND
  5
5EAA
  8
0
  0
POLYLINE
  5
5988
  8
0
 66
     1
 10
0.0
 20
0.0
 30
0.0
 70
    64
 71
     4
 72
     2
  0
VERTEX
  5
5989
  8
0
 10
-307.5000000000001
 20
162.9999999999999
 30
58.00000000000021
 70
   192
  0
VERTEX
  5
598A
  8
0
 10
-307.5000000000001
 20
167.9999999999999
 30
58.00000000000021
 70
   192
  0
VERTEX
  5
598B
  8
0
 10
-307.5000000000001
 20
167.9999999999999
 30
-61.99999999999979
 70
   192
  0
VERTEX
  5
598C
  8
0
 10
-307.5000000000001
 20
162.9999999999999
 30
-61.99999999999979
 70
   192
  0
VERTEX
  5
598D
  8
0
 10
0.0
 20
0.0
 30
0.0
 70
   128
 71
     1
 72
     4
 73
    -3
  0
VERTEX
  5
598E
  8
0
 10
0.0
 20
0.0
 30
0.0
 70
   128
 71
    -1
 72
     3
 73
     2
  0
SEQEND
  5
5EAB
  8
0
  0
POLYLINE
  5
598F
  8
0
 66
     1
 10
0.0
 20
0.0
 30
0.0
 70
    64
 71
     4
 72
     2
  0
VERTEX
  5
5990
  8
0
 10
-307.5000000000001
 20
162.9999999999999
 30
-61.99999999999979
 70
   192
  0
VERTEX
  5
5991
  8
0
 10
-307.5000000000001
 20
167.9999999999999
 30
-61.99999999999979
 70
   192
  0
VERTEX
  5
5992
  8
0
 10
-584.5000000000001
 20
167.9999999999999
 30
-61.99999999999975
 70
   192
  0
VERTEX
  5
5993
  8
0
 10
-584.5000000000001
 20
162.9999999999999
 30
-61.99999999999975
 70
   192
  0
VERTEX
  5
5994
  8
0
 10
0.0
 20
0.0
 30
0.0
 70
   128
 71
     1
 72
     4
 73
    -3
  0
VERTEX
  5
5995
  8
0
 10
0.0
 20
0.0
 30
0.0
 70
   128
 71
    -1
 72
     3
 73
     2
  0
SEQEND
  5
5EAC
  8
0
  0
POLYLINE
  5
5996
  8
0
 66
     1
 10
0.0
 20
0.0
 30
0.0
 70
    64
 71
     4
 72
     2
  0
VERTEX
  5
5997
  8
0
 10
-584.5000000000001
 20
167.9999999999999
 30
-61.99999999999975
 70
   192
  0
VERTEX
  5
5998
  8
0
 10
-584.5000000000001
 20
167.9999999999999
 30
58.00000000000025
 70
   192
  0
VERTEX
  5
5999
  8
0
 10
-307.5000000000001
 20
167.9999999999999
 30
58.00000000000021
 70
   192
  0
VERTEX
  5
599A
  8
0
 10
-307.5000000000001
 20
167.9999999999999
 30
-61.99999999999979
 70
   192
  0
VERTEX
  5
599B
  8
0
 10
0.0
 20
0.0
 30
0.0
 70
   128
 71
     3
 72
     4
 73
    -1
  0
VERTEX
  5
599C
  8
0
 10
0.0
 20
0.0
 30
0.0
 70
   128
 71
     2
 72
    -3
 73
     1
  0
SEQEND
  5
5EAD
  8
0
  0
POLYLINE
  5
599D
  8
0
 66
     1
 10
0.0
 20
0.0
 30
0.0
 70
    64
 71
     4
 72
     2
  0
VERTEX
  5
599E
  8
0
 10
-584.5000000000001
 20
162.9999999999999
 30
58.00000000000025
 70
   192
  0
VERTEX
  5
599F
  8
0
 10
-307.5000000000001
 20
162.9999999999999
 30
58.00000000000021
 70
   192
  0
VERTEX
  5
59A0
  8
0
 10
-307.5000000000001
 20
162.9999999999999
 30
-61.99999999999979
 70
   192
  0
VERTEX
  5
59A1
  8
0
 10
-584.5000000000001
 20
162.9999999999999
 30
-61.99999999999975
 70
   192
  0
VERTEX
  5
59A2
  8
0
 10
0.0
 20
0.0
 30
0.0
 70
   128
 71
     1
 72
     4
 73
    -3
  0
VERTEX
  5
59A3
  8
0
 10
0.0
 20
0.0
 30
0.0
 70
   128
 71
    -1
 72
     3
 73
     2
  0
SEQEND
  5
5EAE
  8
0
  0
ENDBLK
  5
5EA8
  8
0
  0
BLOCK
  8
0
  2
*X30
 70
     1
 10
0.0
 20
0.0
 30
0.0
  3
*X30
  1

  0
POLYLINE
  5
59A5
  8
0
 66
     1
 10
0.0
 20
0.0
 30
0.0
 70
    64
 71
     4
 72
     2
  0
VERTEX
  5
59A6
  8
0
 10
-220.5000000000003
 20
702.0000000000001
 30
31.99999999999989
 70
   192
  0
VERTEX
  5
59A7
  8
0
 10
-220.5000000000003
 20
723.0000000000001
 30
31.99999999999989
 70
   192
  0
VERTEX
  5
59A8
  8
0
 10
-220.5000000000002
 20
723.0000000000001
 30
46.99999999999989
 70
   192
  0
VERTEX
  5
59A9
  8
0
 10
-220.5000000000003
 20
702.0000000000001
 30
46.99999999999989
 70
   192
  0
VERTEX
  5
59AA
  8
0
 10
0.0
 20
0.0
 30
0.0
 70
   128
 71
     1
 72
     4
 73
    -3
  0
VERTEX
  5
59AB
  8
0
 10
0.0
 20
0.0
 30
0.0
 70
   128
 71
    -1
 72
     3
 73
     2
  0
SEQEND
  5
5EB1
  8
0
  0
POLYLINE
  5
59AC
  8
0
 66
     1
 10
0.0
 20
0.0
 30
0.0
 70
    64
 71
     4
 72
     2
  0
VERTEX
  5
59AD
  8
0
 10
-220.5000000000002
 20
702.0000000000001
 30
46.99999999999989
 70
   192
  0
VERTEX
  5
59AE
  8
0
 10
-220.5000000000002
 20
723.0000000000001
 30
46.99999999999989
 70
   192
  0
VERTEX
  5
59AF
  8
0
 10
-179.5000000000003
 20
723.0000000000001
 30
46.99999999999989
 70
   192
  0
VERTEX
  5
59B0
  8
0
 10
-179.5000000000003
 20
702.0000000000001
 30
46.99999999999989
 70
   192
  0
VERTEX
  5
59B1
  8
0
 10
0.0
 20
0.0
 30
0.0
 70
   128
 71
     1
 72
     4
 73
    -3
  0
VERTEX
  5
59B2
  8
0
 10
0.0
 20
0.0
 30
0.0
 70
   128
 71
    -1
 72
     3
 73
     2
  0
SEQEND
  5
5EB2
  8
0
  0
POLYLINE
  5
59B3
  8
0
 66
     1
 10
0.0
 20
0.0
 30
0.0
 70
    64
 71
     4
 72
     2
  0
VERTEX
  5
59B4
  8
0
 10
-179.5000000000003
 20
702.0000000000001
 30
46.99999999999989
 70
   192
  0
VERTEX
  5
59B5
  8
0
 10
-179.5000000000003
 20
723.0000000000001
 30
46.99999999999989
 70
   192
  0
VERTEX
  5
59B6
  8
0
 10
-179.5000000000003
 20
723.0000000000001
 30
31.99999999999989
 70
   192
  0
VERTEX
  5
59B7
  8
0
 10
-179.5000000000003
 20
702.0000000000001
 30
31.99999999999989
 70
   192
  0
VERTEX
  5
59B8
  8
0
 10
0.0
 20
0.0
 30
0.0
 70
   128
 71
     1
 72
     4
 73
    -3
  0
VERTEX
  5
59B9
  8
0
 10
0.0
 20
0.0
 30
0.0
 70
   128
 71
    -1
 72
     3
 73
     2
  0
SEQEND
  5
5EB3
  8
0
  0
POLYLINE
  5
59BA
  8
0
 66
     1
 10
0.0
 20
0.0
 30
0.0
 70
    64
 71
     4
 72
     2
  0
VERTEX
  5
59BB
  8
0
 10
-179.5000000000003
 20
702.0000000000001
 30
31.99999999999989
 70
   192
  0
VERTEX
  5
59BC
  8
0
 10
-179.5000000000003
 20
723.0000000000001
 30
31.99999999999989
 70
   192
  0
VERTEX
  5
59BD
  8
0
 10
-220.5000000000003
 20
723.0000000000001
 30
31.99999999999989
 70
   192
  0
VERTEX
  5
59BE
  8
0
 10
-220.5000000000003
 20
702.0000000000001
 30
31.99999999999989
 70
   192
  0
VERTEX
  5
59BF
  8
0
 10
0.0
 20
0.0
 30
0.0
 70
   128
 71
     1
 72
     4
 73
    -3
  0
VERTEX
  5
59C0
  8
0
 10
0.0
 20
0.0
 30
0.0
 70
   128
 71
    -1
 72
     3
 73
     2
  0
SEQEND
  5
5EB4
  8
0
  0
POLYLINE
  5
59C1
  8
0
 66
     1
 10
0.0
 20
0.0
 30
0.0
 70
    64
 71
     4
 72
     2
  0
VERTEX
  5
59C2
  8
0
 10
-220.5000000000003
 20
723.0000000000001
 30
31.99999999999989
 70
   192
  0
VERTEX
  5
59C3
  8
0
 10
-220.5000000000003
 20
723.0000000000001
 30
46.99999999999989
 70
   192
  0
VERTEX
  5
59C4
  8
0
 10
-179.5000000000003
 20
723.0000000000001
 30
46.99999999999989
 70
   192
  0
VERTEX
  5
59C5
  8
0
 10
-179.5000000000003
 20
723.0000000000001
 30
31.99999999999989
 70
   192
  0
VERTEX
  5
59C6
  8
0
 10
0.0
 20
0.0
 30
0.0
 70
   128
 71
     3
 72
     4
 73
    -1
  0
VERTEX
  5
59C7
  8
0
 10
0.0
 20
0.0
 30
0.0
 70
   128
 71
     2
 72
    -3
 73
     1
  0
SEQEND
  5
5EB5
  8
0
  0
POLYLINE
  5
59C8
  8
0
 66
     1
 10
0.0
 20
0.0
 30
0.0
 70
    64
 71
     4
 72
     2
  0
VERTEX
  5
59C9
  8
0
 10
-220.5000000000002
 20
702.0000000000001
 30
46.99999999999989
 70
   192
  0
VERTEX
  5
59CA
  8
0
 10
-179.5000000000003
 20
702.0000000000001
 30
46.99999999999989
 70
   192
  0
VERTEX
  5
59CB
  8
0
 10
-179.5000000000003
 20
702.0000000000001
 30
31.99999999999989
 70
   192
  0
VERTEX
  5
59CC
  8
0
 10
-220.5000000000003
 20
702.0000000000001
 30
31.99999999999989
 70
   192
  0
VERTEX
  5
59CD
  8
0
 10
0.0
 20
0.0
 30
0.0
 70
   128
 71
     1
 72
     4
 73
    -3
  0
VERTEX
  5
59CE
  8
0
 10
0.0
 20
0.0
 30
0.0
 70
   128
 71
    -1
 72
     3
 73
     2
  0
SEQEND
  5
5EB6
  8
0
  0
ENDBLK
  5
5EB0
  8
0
  0
BLOCK
  8
0
  2
*X31
 70
     1
 10
0.0
 20
0.0
 30
0.0
  3
*X31
  1

  0
POLYLINE
  5
59D0
  8
0
 66
     1
 10
0.0
 20
0.0
 30
0.0
 70
    64
 71
     4
 72
     2
  0
VERTEX
  5
59D1
  8
0
 10
179.4999999999998
 20
702.0000000000001
 30
32.00000000000026
 70
   192
  0
VERTEX
  5
59D2
  8
0
 10
179.4999999999998
 20
723.0000000000001
 30
32.00000000000026
 70
   192
  0
VERTEX
  5
59D3
  8
0
 10
179.4999999999998
 20
723.0000000000001
 30
47.00000000000026
 70
   192
  0
VERTEX
  5
59D4
  8
0
 10
179.4999999999998
 20
702.0000000000001
 30
47.00000000000026
 70
   192
  0
VERTEX
  5
59D5
  8
0
 10
0.0
 20
0.0
 30
0.0
 70
   128
 71
     1
 72
     4
 73
    -3
  0
VERTEX
  5
59D6
  8
0
 10
0.0
 20
0.0
 30
0.0
 70
   128
 71
    -1
 72
     3
 73
     2
  0
SEQEND
  5
5EB9
  8
0
  0
POLYLINE
  5
59D7
  8
0
 66
     1
 10
0.0
 20
0.0
 30
0.0
 70
    64
 71
     4
 72
     2
  0
VERTEX
  5
59D8
  8
0
 10
179.4999999999998
 20
702.0000000000001
 30
47.00000000000026
 70
   192
  0
VERTEX
  5
59D9
  8
0
 10
179.4999999999998
 20
723.0000000000001
 30
47.00000000000026
 70
   192
  0
VERTEX
  5
59DA
  8
0
 10
220.4999999999997
 20
723.0000000000001
 30
47.00000000000026
 70
   192
  0
VERTEX
  5
59DB
  8
0
 10
220.4999999999997
 20
702.0000000000001
 30
47.00000000000026
 70
   192
  0
VERTEX
  5
59DC
  8
0
 10
0.0
 20
0.0
 30
0.0
 70
   128
 71
     1
 72
     4
 73
    -3
  0
VERTEX
  5
59DD
  8
0
 10
0.0
 20
0.0
 30
0.0
 70
   128
 71
    -1
 72
     3
 73
     2
  0
SEQEND
  5
5EBA
  8
0
  0
POLYLINE
  5
59DE
  8
0
 66
     1
 10
0.0
 20
0.0
 30
0.0
 70
    64
 71
     4
 72
     2
  0
VERTEX
  5
59DF
  8
0
 10
220.4999999999997
 20
702.0000000000001
 30
47.00000000000026
 70
   192
  0
VERTEX
  5
59E0
  8
0
 10
220.4999999999997
 20
723.0000000000001
 30
47.00000000000026
 70
   192
  0
VERTEX
  5
59E1
  8
0
 10
220.4999999999997
 20
723.0000000000001
 30
32.00000000000026
 70
   192
  0
VERTEX
  5
59E2
  8
0
 10
220.4999999999997
 20
702.0000000000001
 30
32.00000000000026
 70
   192
  0
VERTEX
  5
59E3
  8
0
 10
0.0
 20
0.0
 30
0.0
 70
   128
 71
     1
 72
     4
 73
    -3
  0
VERTEX
  5
59E4
  8
0
 10
0.0
 20
0.0
 30
0.0
 70
   128
 71
    -1
 72
     3
 73
     2
  0
SEQEND
  5
5EBB
  8
0
  0
POLYLINE
  5
59E5
  8
0
 66
     1
 10
0.0
 20
0.0
 30
0.0
 70
    64
 71
     4
 72
     2
  0
VERTEX
  5
59E6
  8
0
 10
220.4999999999997
 20
702.0000000000001
 30
32.00000000000026
 70
   192
  0
VERTEX
  5
59E7
  8
0
 10
220.4999999999997
 20
723.0000000000001
 30
32.00000000000026
 70
   192
  0
VERTEX
  5
59E8
  8
0
 10
179.4999999999998
 20
723.0000000000001
 30
32.00000000000026
 70
   192
  0
VERTEX
  5
59E9
  8
0
 10
179.4999999999998
 20
702.0000000000001
 30
32.00000000000026
 70
   192
  0
VERTEX
  5
59EA
  8
0
 10
0.0
 20
0.0
 30
0.0
 70
   128
 71
     1
 72
     4
 73
    -3
  0
VERTEX
  5
59EB
  8
0
 10
0.0
 20
0.0
 30
0.0
 70
   128
 71
    -1
 72
     3
 73
     2
  0
SEQEND
  5
5EBC
  8
0
  0
POLYLINE
  5
59EC
  8
0
 66
     1
 10
0.0
 20
0.0
 30
0.0
 70
    64
 71
     4
 72
     2
  0
VERTEX
  5
59ED
  8
0
 10
179.4999999999998
 20
723.0000000000001
 30
32.00000000000026
 70
   192
  0
VERTEX
  5
59EE
  8
0
 10
179.4999999999998
 20
723.0000000000001
 30
47.00000000000026
 70
   192
  0
VERTEX
  5
59EF
  8
0
 10
220.4999999999997
 20
723.0000000000001
 30
47.00000000000026
 70
   192
  0
VERTEX
  5
59F0
  8
0
 10
220.4999999999997
 20
723.0000000000001
 30
32.00000000000026
 70
   192
  0
VERTEX
  5
59F1
  8
0
 10
0.0
 20
0.0
 30
0.0
 70
   128
 71
     3
 72
     4
 73
    -1
  0
VERTEX
  5
59F2
  8
0
 10
0.0
 20
0.0
 30
0.0
 70
   128
 71
     2
 72
    -3
 73
     1
  0
SEQEND
  5
5EBD
  8
0
  0
POLYLINE
  5
59F3
  8
0
 66
     1
 10
0.0
 20
0.0
 30
0.0
 70
    64
 71
     4
 72
     2
  0
VERTEX
  5
59F4
  8
0
 10
179.4999999999998
 20
702.0000000000001
 30
47.00000000000026
 70
   192
  0
VERTEX
  5
59F5
  8
0
 10
220.4999999999997
 20
702.0000000000001
 30
47.00000000000026
 70
   192
  0
VERTEX
  5
59F6
  8
0
 10
220.4999999999997
 20
702.0000000000001
 30
32.00000000000026
 70
   192
  0
VERTEX
  5
59F7
  8
0
 10
179.4999999999998
 20
702.0000000000001
 30
32.00000000000026
 70
   192
  0
VERTEX
  5
59F8
  8
0
 10
0.0
 20
0.0
 30
0.0
 70
   128
 71
     1
 72
     4
 73
    -3
  0
VERTEX
  5
59F9
  8
0
 10
0.0
 20
0.0
 30
0.0
 70
   128
 71
    -1
 72
     3
 73
     2
  0
SEQEND
  5
5EBE
  8
0
  0
ENDBLK
  5
5EB8
  8
0
  0
BLOCK
  8
0
  2
*X32
 70
     1
 10
0.0
 20
0.0
 30
0.0
  3
*X32
  1

  0
POLYLINE
  5
59FB
  8
0
 66
     1
 10
0.0
 20
0.0
 30
0.0
 70
    64
 71
    10
 72
     8
  0
VERTEX
  5
59FC
  8
0
 10
-231.2500000000002
 20
700.0000000000001
 30
40.99999999999989
 70
   192
  0
VERTEX
  5
59FD
  8
0
 10
-231.2500000000002
 20
700.0000000000001
 30
45.99999999999989
 70
   192
  0
VERTEX
  5
59FE
  8
0
 10
-231.2500000000002
 20
703.0000000000001
 30
45.99999999999989
 70
   192
  0
VERTEX
  5
59FF
  8
0
 10
-231.2500000000002
 20
703.0000000000001
 30
40.99999999999989
 70
   192
  0
VERTEX
  5
5A00
  8
0
 10
-233.7500000000002
 20
703.0000000000001
 30
43.49999999999989
 70
   192
  0
VERTEX
  5
5A01
  8
0
 10
-233.7500000000002
 20
700.0000000000001
 30
43.49999999999989
 70
   192
  0
VERTEX
  5
5A02
  8
0
 10
-233.0177669529666
 20
703.0000000000001
 30
41.73223304703352
 70
   192
  0
VERTEX
  5
5A03
  8
0
 10
-233.0177669529666
 20
700.0000000000001
 30
41.73223304703352
 70
   192
  0
VERTEX
  5
5A04
  8
0
 10
-233.0177669529666
 20
703.0000000000001
 30
45.26776695296626
 70
   192
  0
VERTEX
  5
5A05
  8
0
 10
-233.0177669529666
 20
700.0000000000001
 30
45.26776695296626
 70
   192
  0
VERTEX
  5
5A06
  8
0
 10
0.0
 20
0.0
 30
0.0
 70
   128
 71
     8
 72
     1
 73
    -4
  0
VERTEX
  5
5A07
  8
0
 10
0.0
 20
0.0
 30
0.0
 70
   128
 71
     7
 72
    -8
 73
     4
  0
VERTEX
  5
5A08
  8
0
 10
0.0
 20
0.0
 30
0.0
 70
   128
 71
     6
 72
     8
 73
    -7
  0
VERTEX
  5
5A09
  8
0
 10
0.0
 20
0.0
 30
0.0
 70
   128
 71
     5
 72
    -6
 73
     7
  0
VERTEX
  5
5A0A
  8
0
 10
0.0
 20
0.0
 30
0.0
 70
   128
 71
    10
 72
     6
 73
    -5
  0
VERTEX
  5
5A0B
  8
0
 10
0.0
 20
0.0
 30
0.0
 70
   128
 71
     9
 72
   -10
 73
     5
  0
VERTEX
  5
5A0C
  8
0
 10
0.0
 20
0.0
 30
0.0
 70
   128
 71
     2
 72
    10
 73
    -9
  0
VERTEX
  5
5A0D
  8
0
 10
0.0
 20
0.0
 30
0.0
 70
   128
 71
     3
 72
    -2
 73
     9
  0
SEQEND
  5
5EC1
  8
0
  0
POLYLINE
  5
5A0E
  8
0
 66
     1
 10
0.0
 20
0.0
 30
0.0
 70
    64
 71
    10
 72
     8
  0
VERTEX
  5
5A0F
  8
0
 10
-168.7500000000003
 20
700.0000000000001
 30
40.99999999999991
 70
   192
  0
VERTEX
  5
5A10
  8
0
 10
-168.7500000000003
 20
700.0000000000001
 30
45.99999999999991
 70
   192
  0
VERTEX
  5
5A11
  8
0
 10
-168.7500000000003
 20
703.0000000000001
 30
45.99999999999991
 70
   192
  0
VERTEX
  5
5A12
  8
0
 10
-168.7500000000003
 20
703.0000000000001
 30
40.99999999999991
 70
   192
  0
VERTEX
  5
5A13
  8
0
 10
-171.2500000000003
 20
703.0000000000001
 30
43.49999999999991
 70
   192
  0
VERTEX
  5
5A14
  8
0
 10
-171.2500000000003
 20
700.0000000000001
 30
43.49999999999991
 70
   192
  0
VERTEX
  5
5A15
  8
0
 10
-170.5177669529666
 20
703.0000000000001
 30
41.73223304703355
 70
   192
  0
VERTEX
  5
5A16
  8
0
 10
-170.5177669529666
 20
700.0000000000001
 30
41.73223304703355
 70
   192
  0
VERTEX
  5
5A17
  8
0
 10
-170.5177669529666
 20
703.0000000000001
 30
45.26776695296628
 70
   192
  0
VERTEX
  5
5A18
  8
0
 10
-170.5177669529666
 20
700.0000000000001
 30
45.26776695296628
 70
   192
  0
VERTEX
  5
5A19
  8
0
 10
0.0
 20
0.0
 30
0.0
 70
   128
 71
     8
 72
     1
 73
    -4
  0
VERTEX
  5
5A1A
  8
0
 10
0.0
 20
0.0
 30
0.0
 70
   128
 71
     7
 72
    -8
 73
     4
  0
VERTEX
  5
5A1B
  8
0
 10
0.0
 20
0.0
 30
0.0
 70
   128
 71
     6
 72
     8
 73
    -7
  0
VERTEX
  5
5A1C
  8
0
 10
0.0
 20
0.0
 30
0.0
 70
   128
 71
     5
 72
    -6
 73
     7
  0
VERTEX
  5
5A1D
  8
0
 10
0.0
 20
0.0
 30
0.0
 70
   128
 71
    10
 72
     6
 73
    -5
  0
VERTEX
  5
5A1E
  8
0
 10
0.0
 20
0.0
 30
0.0
 70
   128
 71
     9
 72
   -10
 73
     5
  0
VERTEX
  5
5A1F
  8
0
 10
0.0
 20
0.0
 30
0.0
 70
   128
 71
     2
 72
    10
 73
    -9
  0
VERTEX
  5
5A20
  8
0
 10
0.0
 20
0.0
 30
0.0
 70
   128
 71
     3
 72
    -2
 73
     9
  0
SEQEND
  5
5EC2
  8
0
  0
POLYLINE
  5
5A21
  8
0
 66
     1
 10
0.0
 20
0.0
 30
0.0
 70
    64
 71
    12
 72
    12
  0
VERTEX
  5
5A22
  8
0
 10
-222.5000000000003
 20
703.0000000000001
 30
52.9999999999999
 70
   192
  0
VERTEX
  5
5A23
  8
0
 10
-222.5000000000003
 20
703.0000000000001
 30
33.9999999999999
 70
   192
  0
VERTEX
  5
5A24
  8
0
 10
-240.0000000000002
 20
703.0000000000001
 30
33.9999999999999
 70
   192
  0
VERTEX
  5
5A25
  8
0
 10
-240.0000000000002
 20
703.0000000000001
 30
52.9999999999999
 70
   192
  0
VERTEX
  5
5A26
  8
0
 10
-231.2500000000002
 20
703.0000000000001
 30
40.99999999999989
 70
   192
  0
VERTEX
  5
5A27
  8
0
 10
-229.4822330470339
 20
703.0000000000001
 30
41.73223304703352
 70
   192
  0
VERTEX
  5
5A28
  8
0
 10
-228.7500000000002
 20
703.0000000000001
 30
43.49999999999989
 70
   192
  0
VERTEX
  5
5A29
  8
0
 10
-229.4822330470339
 20
703.0000000000001
 30
45.26776695296626
 70
   192
  0
VERTEX
  5
5A2A
  8
0
 10
-231.2500000000002
 20
703.0000000000001
 30
45.99999999999989
 70
   192
  0
VERTEX
  5
5A2B
  8
0
 10
-233.0177669529666
 20
703.0000000000001
 30
45.26776695296626
 70
   192
  0
VERTEX
  5
5A2C
  8
0
 10
-233.7500000000002
 20
703.0000000000001
 30
43.49999999999989
 70
   192
  0
VERTEX
  5
5A2D
  8
0
 10
-233.0177669529666
 20
703.0000000000001
 30
41.73223304703352
 70
   192
  0
VERTEX
  5
5A2E
  8
0
 10
0.0
 20
0.0
 30
0.0
 70
   128
 71
    -2
 72
     5
 73
    -6
  0
VERTEX
  5
5A2F
  8
0
 10
0.0
 20
0.0
 30
0.0
 70
   128
 71
     6
 72
    -7
 73
    -2
  0
VERTEX
  5
5A30
  8
0
 10
0.0
 20
0.0
 30
0.0
 70
   128
 71
    -8
 72
     1
 73
    -2
  0
VERTEX
  5
5A31
  8
0
 10
0.0
 20
0.0
 30
0.0
 70
   128
 71
     7
 72
    -8
 73
    -2
  0
VERTEX
  5
5A32
  8
0
 10
0.0
 20
0.0
 30
0.0
 70
   128
 71
     8
 72
    -9
 73
    -1
  0
VERTEX
  5
5A33
  8
0
 10
0.0
 20
0.0
 30
0.0
 70
   128
 71
   -10
 72
     4
 73
    -1
  0
VERTEX
  5
5A34
  8
0
 10
0.0
 20
0.0
 30
0.0
 70
   128
 71
     9
 72
   -10
 73
    -1
  0
VERTEX
  5
5A35
  8
0
 10
0.0
 20
0.0
 30
0.0
 70
   128
 71
   -11
 72
     3
 73
    -4
  0
VERTEX
  5
5A36
  8
0
 10
0.0
 20
0.0
 30
0.0
 70
   128
 71
    10
 72
   -11
 73
    -4
  0
VERTEX
  5
5A37
  8
0
 10
0.0
 20
0.0
 30
0.0
 70
   128
 71
    11
 72
   -12
 73
    -3
  0
VERTEX
  5
5A38
  8
0
 10
0.0
 20
0.0
 30
0.0
 70
   128
 71
    -5
 72
     2
 73
    -3
  0
VERTEX
  5
5A39
  8
0
 10
0.0
 20
0.0
 30
0.0
 70
   128
 71
    12
 72
    -5
 73
    -3
  0
SEQEND
  5
5EC3
  8
0
  0
POLYLINE
  5
5A3A
  8
0
 66
     1
 10
0.0
 20
0.0
 30
0.0
 70
    64
 71
     4
 72
     2
  0
VERTEX
  5
5A3B
  8
0
 10
-240.0000000000002
 20
700.0000000000001
 30
33.9999999999999
 70
   192
  0
VERTEX
  5
5A3C
  8
0
 10
-240.0000000000002
 20
703.0000000000001
 30
33.9999999999999
 70
   192
  0
VERTEX
  5
5A3D
  8
0
 10
-240.0000000000002
 20
703.0000000000001
 30
52.9999999999999
 70
   192
  0
VERTEX
  5
5A3E
  8
0
 10
-240.0000000000002
 20
700.0000000000001
 30
52.9999999999999
 70
   192
  0
VERTEX
  5
5A3F
  8
0
 10
0.0
 20
0.0
 30
0.0
 70
   128
 71
     1
 72
     4
 73
    -3
  0
VERTEX
  5
5A40
  8
0
 10
0.0
 20
0.0
 30
0.0
 70
   128
 71
    -1
 72
     3
 73
     2
  0
SEQEND
  5
5EC4
  8
0
  0
POLYLINE
  5
5A41
  8
0
 66
     1
 10
0.0
 20
0.0
 30
0.0
 70
    64
 71
     8
 72
     6
  0
VERTEX
  5
5A42
  8
0
 10
-240.0000000000002
 20
700.0000000000001
 30
52.9999999999999
 70
   192
  0
VERTEX
  5
5A43
  8
0
 10
-240.0000000000002
 20
703.0000000000001
 30
52.9999999999999
 70
   192
  0
VERTEX
  5
5A44
  8
0
 10
-222.5000000000003
 20
703.0000000000001
 30
52.9999999999999
 70
   192
  0
VERTEX
  5
5A45
  8
0
 10
-222.5000000000003
 20
724.0000000000001
 30
52.9999999999999
 70
   192
  0
VERTEX
  5
5A46
  8
0
 10
-177.5000000000003
 20
724.0000000000001
 30
52.9999999999999
 70
   192
  0
VERTEX
  5
5A47
  8
0
 10
-177.5000000000003
 20
703.0000000000001
 30
52.99999999999989
 70
   192
  0
VERTEX
  5
5A48
  8
0
 10
-160.0000000000002
 20
703.0000000000001
 30
52.99999999999989
 70
   192
  0
VERTEX
  5
5A49
  8
0
 10
-160.0000000000002
 20
700.0000000000001
 30
52.99999999999989
 70
   192
  0
VERTEX
  5
5A4A
  8
0
 10
0.0
 20
0.0
 30
0.0
 70
   128
 71
     3
 72
     2
 73
    -1
  0
VERTEX
  5
5A4B
  8
0
 10
0.0
 20
0.0
 30
0.0
 70
   128
 71
    -3
 72
    -1
 73
    -6
  0
VERTEX
  5
5A4C
  8
0
 10
0.0
 20
0.0
 30
0.0
 70
   128
 71
     6
 72
     5
 73
    -4
  0
VERTEX
  5
5A4D
  8
0
 10
0.0
 20
0.0
 30
0.0
 70
   128
 71
    -6
 72
     4
 73
    -3
  0
VERTEX
  5
5A4E
  8
0
 10
0.0
 20
0.0
 30
0.0
 70
   128
 71
     1
 72
    -8
 73
    -6
  0
VERTEX
  5
5A4F
  8
0
 10
0.0
 20
0.0
 30
0.0
 70
   128
 71
     8
 72
     7
 73
    -6
  0
SEQEND
  5
5EC5
  8
0
  0
POLYLINE
  5
5A50
  8
0
 66
     1
 10
0.0
 20
0.0
 30
0.0
 70
    64
 71
     4
 72
     2
  0
VERTEX
  5
5A51
  8
0
 10
-160.0000000000002
 20
700.0000000000001
 30
52.99999999999989
 70
   192
  0
VERTEX
  5
5A52
  8
0
 10
-160.0000000000002
 20
703.0000000000001
 30
52.99999999999989
 70
   192
  0
VERTEX
  5
5A53
  8
0
 10
-160.0000000000002
 20
703.0000000000001
 30
33.99999999999989
 70
   192
  0
VERTEX
  5
5A54
  8
0
 10
-160.0000000000002
 20
700.0000000000001
 30
33.99999999999989
 70
   192
  0
VERTEX
  5
5A55
  8
0
 10
0.0
 20
0.0
 30
0.0
 70
   128
 71
     1
 72
     4
 73
    -3
  0
VERTEX
  5
5A56
  8
0
 10
0.0
 20
0.0
 30
0.0
 70
   128
 71
    -1
 72
     3
 73
     2
  0
SEQEND
  5
5EC6
  8
0
  0
POLYLINE
  5
5A57
  8
0
 66
     1
 10
0.0
 20
0.0
 30
0.0
 70
    64
 71
     4
 72
     2
  0
VERTEX
  5
5A58
  8
0
 10
-160.0000000000002
 20
700.0000000000001
 30
33.99999999999989
 70
   192
  0
VERTEX
  5
5A59
  8
0
 10
-160.0000000000002
 20
703.0000000000001
 30
33.99999999999989
 70
   192
  0
VERTEX
  5
5A5A
  8
0
 10
-177.5000000000003
 20
703.0000000000001
 30
33.9999999999999
 70
   192
  0
VERTEX
  5
5A5B
  8
0
 10
-177.5000000000003
 20
700.0000000000001
 30
33.99999999999989
 70
   192
  0
VERTEX
  5
5A5C
  8
0
 10
0.0
 20
0.0
 30
0.0
 70
   128
 71
     1
 72
     4
 73
    -3
  0
VERTEX
  5
5A5D
  8
0
 10
0.0
 20
0.0
 30
0.0
 70
   128
 71
    -1
 72
     3
 73
     2
  0
SEQEND
  5
5EC7
  8
0
  0
POLYLINE
  5
5A5E
  8
0
 66
     1
 10
0.0
 20
0.0
 30
0.0
 70
    64
 71
     6
 72
     4
  0
VERTEX
  5
5A5F
  8
0
 10
-177.5000000000003
 20
700.0000000000001
 30
33.9999999999999
 70
   192
  0
VERTEX
  5
5A60
  8
0
 10
-177.5000000000003
 20
703.0000000000001
 30
33.9999999999999
 70
   192
  0
VERTEX
  5
5A61
  8
0
 10
-177.5000000000003
 20
703.0000000000001
 30
52.9999999999999
 70
   192
  0
VERTEX
  5
5A62
  8
0
 10
-177.5000000000003
 20
724.0000000000001
 30
52.9999999999999
 70
   192
  0
VERTEX
  5
5A63
  8
0
 10
-177.5000000000003
 20
724.0000000000001
 30
31.99999999999989
 70
   192
  0
VERTEX
  5
5A64
  8
0
 10
-177.5000000000003
 20
700.0000000000001
 30
31.99999999999989
 70
   192
  0
VERTEX
  5
5A65
  8
0
 10
0.0
 20
0.0
 30
0.0
 70
   128
 71
     2
 72
     1
 73
    -6
  0
VERTEX
  5
5A66
  8
0
 10
0.0
 20
0.0
 30
0.0
 70
   128
 71
    -2
 72
     6
 73
    -5
  0
VERTEX
  5
5A67
  8
0
 10
0.0
 20
0.0
 30
0.0
 70
   128
 71
     5
 72
     4
 73
    -3
  0
VERTEX
  5
5A68
  8
0
 10
0.0
 20
0.0
 30
0.0
 70
   128
 71
    -5
 72
     3
 73
    -2
  0
SEQEND
  5
5EC8
  8
0
  0
POLYLINE
  5
5A69
  8
0
 66
     1
 10
0.0
 20
0.0
 30
0.0
 70
    64
 71
     8
 72
     6
  0
VERTEX
  5
5A6A
  8
0
 10
-222.5000000000003
 20
724.0000000000001
 30
31.99999999999989
 70
   192
  0
VERTEX
  5
5A6B
  8
0
 10
-222.5000000000003
 20
700.0000000000001
 30
31.99999999999989
 70
   192
  0
VERTEX
  5
5A6C
  8
0
 10
-177.5000000000003
 20
700.0000000000001
 30
31.99999999999989
 70
   192
  0
VERTEX
  5
5A6D
  8
0
 10
-177.5000000000003
 20
724.0000000000001
 30
31.99999999999989
 70
   192
  0
VERTEX
  5
5A6E
  8
0
 10
-179.5000000000003
 20
724.0000000000001
 30
31.99999999999989
 70
   192
  0
VERTEX
  5
5A6F
  8
0
 10
-179.5000000000003
 20
702.0000000000001
 30
31.99999999999989
 70
   192
  0
VERTEX
  5
5A70
  8
0
 10
-220.5000000000003
 20
702.0000000000001
 30
31.99999999999989
 70
   192
  0
VERTEX
  5
5A71
  8
0
 10
-220.5000000000003
 20
724.0000000000001
 30
31.99999999999989
 70
   192
  0
VERTEX
  5
5A72
  8
0
 10
0.0
 20
0.0
 30
0.0
 70
   128
 71
     6
 72
     5
 73
    -4
  0
VERTEX
  5
5A73
  8
0
 10
0.0
 20
0.0
 30
0.0
 70
   128
 71
    -6
 72
     4
 73
    -3
  0
VERTEX
  5
5A74
  8
0
 10
0.0
 20
0.0
 30
0.0
 70
   128
 71
     3
 72
    -2
 73
    -7
  0
VERTEX
  5
5A75
  8
0
 10
0.0
 20
0.0
 30
0.0
 70
   128
 71
    -3
 72
     7
 73
    -6
  0
VERTEX
  5
5A76
  8
0
 10
0.0
 20
0.0
 30
0.0
 70
   128
 71
     2
 72
     1
 73
    -8
  0
VERTEX
  5
5A77
  8
0
 10
0.0
 20
0.0
 30
0.0
 70
   128
 71
    -2
 72
     8
 73
    -7
  0
SEQEND
  5
5EC9
  8
0
  0
POLYLINE
  5
5A78
  8
0
 66
     1
 10
0.0
 20
0.0
 30
0.0
 70
    64
 71
     6
 72
     4
  0
VERTEX
  5
5A79
  8
0
 10
-222.5000000000003
 20
700.0000000000001
 30
31.99999999999989
 70
   192
  0
VERTEX
  5
5A7A
  8
0
 10
-222.5000000000003
 20
724.0000000000001
 30
31.99999999999989
 70
   192
  0
VERTEX
  5
5A7B
  8
0
 10
-222.5000000000003
 20
724.0000000000001
 30
52.9999999999999
 70
   192
  0
VERTEX
  5
5A7C
  8
0
 10
-222.5000000000003
 20
703.0000000000001
 30
52.9999999999999
 70
   192
  0
VERTEX
  5
5A7D
  8
0
 10
-222.5000000000003
 20
703.0000000000001
 30
33.9999999999999
 70
   192
  0
VERTEX
  5
5A7E
  8
0
 10
-222.5000000000003
 20
700.0000000000001
 30
33.9999999999999
 70
   192
  0
VERTEX
  5
5A7F
  8
0
 10
0.0
 20
0.0
 30
0.0
 70
   128
 71
     5
 72
     4
 73
    -3
  0
VERTEX
  5
5A80
  8
0
 10
0.0
 20
0.0
 30
0.0
 70
   128
 71
    -5
 72
     3
 73
    -2
  0
VERTEX
  5
5A81
  8
0
 10
0.0
 20
0.0
 30
0.0
 70
   128
 71
     2
 72
    -1
 73
    -5
  0
VERTEX
  5
5A82
  8
0
 10
0.0
 20
0.0
 30
0.0
 70
   128
 71
     1
 72
     6
 73
    -5
  0
SEQEND
  5
5ECA
  8
0
  0
POLYLINE
  5
5A83
  8
0
 66
     1
 10
0.0
 20
0.0
 30
0.0
 70
    64
 71
     4
 72
     2
  0
VERTEX
  5
5A84
  8
0
 10
-222.5000000000003
 20
700.0000000000001
 30
33.9999999999999
 70
   192
  0
VERTEX
  5
5A85
  8
0
 10
-222.5000000000003
 20
703.0000000000001
 30
33.9999999999999
 70
   192
  0
VERTEX
  5
5A86
  8
0
 10
-240.0000000000002
 20
703.0000000000001
 30
33.9999999999999
 70
   192
  0
VERTEX
  5
5A87
  8
0
 10
-240.0000000000002
 20
700.0000000000001
 30
33.9999999999999
 70
   192
  0
VERTEX
  5
5A88
  8
0
 10
0.0
 20
0.0
 30
0.0
 70
   128
 71
     1
 72
     4
 73
    -3
  0
VERTEX
  5
5A89
  8
0
 10
0.0
 20
0.0
 30
0.0
 70
   128
 71
    -1
 72
     3
 73
     2
  0
SEQEND
  5
5ECB
  8
0
  0
POLYLINE
  5
5A8A
  8
0
 66
     1
 10
0.0
 20
0.0
 30
0.0
 70
    64
 71
    12
 72
    12
  0
VERTEX
  5
5A8B
  8
0
 10
-177.5000000000003
 20
703.0000000000001
 30
33.9999999999999
 70
   192
  0
VERTEX
  5
5A8C
  8
0
 10
-177.5000000000003
 20
703.0000000000001
 30
52.99999999999989
 70
   192
  0
VERTEX
  5
5A8D
  8
0
 10
-160.0000000000002
 20
703.0000000000001
 30
52.99999999999989
 70
   192
  0
VERTEX
  5
5A8E
  8
0
 10
-160.0000000000002
 20
703.0000000000001
 30
33.99999999999989
 70
   192
  0
VERTEX
  5
5A8F
  8
0
 10
-168.7500000000003
 20
703.0000000000001
 30
40.99999999999991
 70
   192
  0
VERTEX
  5
5A90
  8
0
 10
-166.9822330470339
 20
703.0000000000001
 30
41.73223304703355
 70
   192
  0
VERTEX
  5
5A91
  8
0
 10
-166.2500000000003
 20
703.0000000000001
 30
43.49999999999991
 70
   192
  0
VERTEX
  5
5A92
  8
0
 10
-166.9822330470339
 20
703.0000000000001
 30
45.26776695296628
 70
   192
  0
VERTEX
  5
5A93
  8
0
 10
-168.7500000000003
 20
703.0000000000001
 30
45.99999999999991
 70
   192
  0
VERTEX
  5
5A94
  8
0
 10
-170.5177669529666
 20
703.0000000000001
 30
45.26776695296628
 70
   192
  0
VERTEX
  5
5A95
  8
0
 10
-171.2500000000003
 20
703.0000000000001
 30
43.49999999999991
 70
   192
  0
VERTEX
  5
5A96
  8
0
 10
-170.5177669529666
 20
703.0000000000001
 30
41.73223304703355
 70
   192
  0
VERTEX
  5
5A97
  8
0
 10
0.0
 20
0.0
 30
0.0
 70
   128
 71
    -1
 72
     5
 73
    -6
  0
VERTEX
  5
5A98
  8
0
 10
0.0
 20
0.0
 30
0.0
 70
   128
 71
     4
 72
    -1
 73
    -6
  0
VERTEX
  5
5A99
  8
0
 10
0.0
 20
0.0
 30
0.0
 70
   128
 71
    -7
 72
     3
 73
    -4
  0
VERTEX
  5
5A9A
  8
0
 10
0.0
 20
0.0
 30
0.0
 70
   128
 71
     6
 72
    -7
 73
    -4
  0
VERTEX
  5
5A9B
  8
0
 10
0.0
 20
0.0
 30
0.0
 70
   128
 71
     7
 72
    -8
 73
    -3
  0
VERTEX
  5
5A9C
  8
0
 10
0.0
 20
0.0
 30
0.0
 70
   128
 71
    -9
 72
     2
 73
    -3
  0
VERTEX
  5
5A9D
  8
0
 10
0.0
 20
0.0
 30
0.0
 70
   128
 71
     8
 72
    -9
 73
    -3
  0
VERTEX
  5
5A9E
  8
0
 10
0.0
 20
0.0
 30
0.0
 70
   128
 71
     9
 72
   -10
 73
    -2
  0
VERTEX
  5
5A9F
  8
0
 10
0.0
 20
0.0
 30
0.0
 70
   128
 71
    10
 72
   -11
 73
    -2
  0
VERTEX
  5
5AA0
  8
0
 10
0.0
 20
0.0
 30
0.0
 70
   128
 71
   -12
 72
     1
 73
    -2
  0
VERTEX
  5
5AA1
  8
0
 10
0.0
 20
0.0
 30
0.0
 70
   128
 71
    11
 72
   -12
 73
    -2
  0
VERTEX
  5
5AA2
  8
0
 10
0.0
 20
0.0
 30
0.0
 70
   128
 71
    12
 72
    -5
 73
    -1
  0
SEQEND
  5
5ECC
  8
0
  0
POLYLINE
  5
5AA3
  8
0
 66
     1
 10
0.0
 20
0.0
 30
0.0
 70
    64
 71
    24
 72
    26
  0
VERTEX
  5
5AA4
  8
0
 10
-240.0000000000002
 20
700.0000000000001
 30
52.9999999999999
 70
   192
  0
VERTEX
  5
5AA5
  8
0
 10
-160.0000000000002
 20
700.0000000000001
 30
52.99999999999989
 70
   192
  0
VERTEX
  5
5AA6
  8
0
 10
-160.0000000000002
 20
700.0000000000001
 30
33.99999999999989
 70
   192
  0
VERTEX
  5
5AA7
  8
0
 10
-177.5000000000003
 20
700.0000000000001
 30
33.9999999999999
 70
   192
  0
VERTEX
  5
5AA8
  8
0
 10
-177.5000000000003
 20
700.0000000000001
 30
31.99999999999989
 70
   192
  0
VERTEX
  5
5AA9
  8
0
 10
-222.5000000000003
 20
700.0000000000001
 30
31.99999999999989
 70
   192
  0
VERTEX
  5
5AAA
  8
0
 10
-222.5000000000003
 20
700.0000000000001
 30
33.9999999999999
 70
   192
  0
VERTEX
  5
5AAB
  8
0
 10
-240.0000000000002
 20
700.0000000000001
 30
33.9999999999999
 70
   192
  0
VERTEX
  5
5AAC
  8
0
 10
-168.7500000000003
 20
700.0000000000001
 30
40.99999999999991
 70
   192
  0
VERTEX
  5
5AAD
  8
0
 10
-166.9822330470339
 20
700.0000000000001
 30
41.73223304703355
 70
   192
  0
VERTEX
  5
5AAE
  8
0
 10
-166.2500000000003
 20
700.0000000000001
 30
43.49999999999991
 70
   192
  0
VERTEX
  5
5AAF
  8
0
 10
-166.9822330470339
 20
700.0000000000001
 30
45.26776695296628
 70
   192
  0
VERTEX
  5
5AB0
  8
0
 10
-168.7500000000003
 20
700.0000000000001
 30
45.99999999999991
 70
   192
  0
VERTEX
  5
5AB1
  8
0
 10
-170.5177669529666
 20
700.0000000000001
 30
45.26776695296628
 70
   192
  0
VERTEX
  5
5AB2
  8
0
 10
-171.2500000000003
 20
700.0000000000001
 30
43.49999999999991
 70
   192
  0
VERTEX
  5
5AB3
  8
0
 10
-170.5177669529666
 20
700.0000000000001
 30
41.73223304703355
 70
   192
  0
VERTEX
  5
5AB4
  8
0
 10
-231.2500000000002
 20
700.0000000000001
 30
40.99999999999989
 70
   192
  0
VERTEX
  5
5AB5
  8
0
 10
-229.4822330470339
 20
700.0000000000001
 30
41.73223304703352
 70
   192
  0
VERTEX
  5
5AB6
  8
0
 10
-228.7500000000002
 20
700.0000000000001
 30
43.49999999999989
 70
   192
  0
VERTEX
  5
5AB7
  8
0
 10
-229.4822330470339
 20
700.0000000000001
 30
45.26776695296626
 70
   192
  0
VERTEX
  5
5AB8
  8
0
 10
-231.2500000000002
 20
700.0000000000001
 30
45.99999999999989
 70
   192
  0
VERTEX
  5
5AB9
  8
0
 10
-233.0177669529666
 20
700.0000000000001
 30
45.26776695296626
 70
   192
  0
VERTEX
  5
5ABA
  8
0
 10
-233.7500000000002
 20
700.0000000000001
 30
43.49999999999989
 70
   192
  0
VERTEX
  5
5ABB
  8
0
 10
-233.0177669529666
 20
700.0000000000001
 30
41.73223304703352
 70
   192
  0
VERTEX
  5
5ABC
  8
0
 10
0.0
 20
0.0
 30
0.0
 70
   128
 71
     7
 72
     6
 73
    -5
  0
VERTEX
  5
5ABD
  8
0
 10
0.0
 20
0.0
 30
0.0
 70
   128
 71
    10
 72
    -9
 73
    -4
  0
VERTEX
  5
5ABE
  8
0
 10
0.0
 20
0.0
 30
0.0
 70
   128
 71
   -10
 72
     4
 73
    -3
  0
VERTEX
  5
5ABF
  8
0
 10
0.0
 20
0.0
 30
0.0
 70
   128
 71
     3
 72
    -2
 73
   -11
  0
VERTEX
  5
5AC0
  8
0
 10
0.0
 20
0.0
 30
0.0
 70
   128
 71
    -3
 72
    11
 73
   -10
  0
VERTEX
  5
5AC1
  8
0
 10
0.0
 20
0.0
 30
0.0
 70
   128
 71
    -2
 72
    12
 73
   -11
  0
VERTEX
  5
5AC2
  8
0
 10
0.0
 20
0.0
 30
0.0
 70
   128
 71
    -2
 72
    13
 73
   -12
  0
VERTEX
  5
5AC3
  8
0
 10
0.0
 20
0.0
 30
0.0
 70
   128
 71
    -2
 72
    14
 73
   -13
  0
VERTEX
  5
5AC4
  8
0
 10
0.0
 20
0.0
 30
0.0
 70
   128
 71
    20
 72
   -19
 73
   -15
  0
VERTEX
  5
5AC5
  8
0
 10
0.0
 20
0.0
 30
0.0
 70
   128
 71
   -14
 72
     2
 73
    -1
  0
VERTEX
  5
5AC6
  8
0
 10
0.0
 20
0.0
 30
0.0
 70
   128
 71
   -14
 72
    -1
 73
   -20
  0
VERTEX
  5
5AC7
  8
0
 10
0.0
 20
0.0
 30
0.0
 70
   128
 71
   -20
 72
    15
 73
   -14
  0
VERTEX
  5
5AC8
  8
0
 10
0.0
 20
0.0
 30
0.0
 70
   128
 71
    -1
 72
    21
 73
   -20
  0
VERTEX
  5
5AC9
  8
0
 10
0.0
 20
0.0
 30
0.0
 70
   128
 71
    -1
 72
    22
 73
   -21
  0
VERTEX
  5
5ACA
  8
0
 10
0.0
 20
0.0
 30
0.0
 70
   128
 71
     1
 72
    -8
 73
   -23
  0
VERTEX
  5
5ACB
  8
0
 10
0.0
 20
0.0
 30
0.0
 70
   128
 71
    -1
 72
    23
 73
   -22
  0
VERTEX
  5
5ACC
  8
0
 10
0.0
 20
0.0
 30
0.0
 70
   128
 71
    -8
 72
    24
 73
   -23
  0
VERTEX
  5
5ACD
  8
0
 10
0.0
 20
0.0
 30
0.0
 70
   128
 71
     8
 72
    -7
 73
   -17
  0
VERTEX
  5
5ACE
  8
0
 10
0.0
 20
0.0
 30
0.0
 70
   128
 71
    -8
 72
    17
 73
   -24
  0
VERTEX
  5
5ACF
  8
0
 10
0.0
 20
0.0
 30
0.0
 70
   128
 71
    18
 72
   -17
 73
    -7
  0
VERTEX
  5
5AD0
  8
0
 10
0.0
 20
0.0
 30
0.0
 70
   128
 71
    -7
 72
    -4
 73
   -16
  0
VERTEX
  5
5AD1
  8
0
 10
0.0
 20
0.0
 30
0.0
 70
   128
 71
    -7
 72
    16
 73
   -15
  0
VERTEX
  5
5AD2
  8
0
 10
0.0
 20
0.0
 30
0.0
 70
   128
 71
    -7
 72
   -15
 73
   -19
  0
VERTEX
  5
5AD3
  8
0
 10
0.0
 20
0.0
 30
0.0
 70
   128
 71
    -7
 72
    19
 73
   -18
  0
VERTEX
  5
5AD4
  8
0
 10
0.0
 20
0.0
 30
0.0
 70
   128
 71
    -4
 72
     9
 73
   -16
  0
VERTEX
  5
5AD5
  8
0
 10
0.0
 20
0.0
 30
0.0
 70
   128
 71
    -7
 72
     5
 73
    -4
  0
SEQEND
  5
5ECD
  8
0
  0
POLYLINE
  5
5AD6
  8
0
 66
     1
 10
0.0
 20
0.0
 30
0.0
 70
    64
 71
     8
 72
     6
  0
VERTEX
  5
5AD7
  8
0
 10
-220.5000000000003
 20
724.0000000000001
 30
50.9999999999999
 70
   192
  0
VERTEX
  5
5AD8
  8
0
 10
-220.5000000000003
 20
724.0000000000001
 30
31.99999999999989
 70
   192
  0
VERTEX
  5
5AD9
  8
0
 10
-222.5000000000003
 20
724.0000000000001
 30
31.99999999999989
 70
   192
  0
VERTEX
  5
5ADA
  8
0
 10
-222.5000000000003
 20
724.0000000000001
 30
52.9999999999999
 70
   192
  0
VERTEX
  5
5ADB
  8
0
 10
-177.5000000000003
 20
724.0000000000001
 30
52.9999999999999
 70
   192
  0
VERTEX
  5
5ADC
  8
0
 10
-177.5000000000003
 20
724.0000000000001
 30
31.99999999999989
 70
   192
  0
VERTEX
  5
5ADD
  8
0
 10
-179.5000000000003
 20
724.0000000000001
 30
31.99999999999989
 70
   192
  0
VERTEX
  5
5ADE
  8
0
 10
-179.5000000000003
 20
724.0000000000001
 30
50.99999999999989
 70
   192
  0
VERTEX
  5
5ADF
  8
0
 10
0.0
 20
0.0
 30
0.0
 70
   128
 71
     6
 72
     7
 73
    -8
  0
VERTEX
  5
5AE0
  8
0
 10
0.0
 20
0.0
 30
0.0
 70
   128
 71
     5
 72
    -6
 73
    -8
  0
VERTEX
  5
5AE1
  8
0
 10
0.0
 20
0.0
 30
0.0
 70
   128
 71
    -1
 72
     4
 73
    -5
  0
VERTEX
  5
5AE2
  8
0
 10
0.0
 20
0.0
 30
0.0
 70
   128
 71
     8
 72
    -1
 73
    -5
  0
VERTEX
  5
5AE3
  8
0
 10
0.0
 20
0.0
 30
0.0
 70
   128
 71
     2
 72
     3
 73
    -4
  0
VERTEX
  5
5AE4
  8
0
 10
0.0
 20
0.0
 30
0.0
 70
   128
 71
     1
 72
    -2
 73
    -4
  0
SEQEND
  5
5ECE
  8
0
  0
POLYLINE
  5
5AE5
  8
0
 66
     1
 10
0.0
 20
0.0
 30
0.0
 70
    64
 71
     4
 72
     2
  0
VERTEX
  5
5AE6
  8
0
 10
-220.5000000000003
 20
702.0000000000001
 30
50.9999999999999
 70
   192
  0
VERTEX
  5
5AE7
  8
0
 10
-220.5000000000003
 20
724.0000000000001
 30
50.9999999999999
 70
   192
  0
VERTEX
  5
5AE8
  8
0
 10
-179.5000000000003
 20
724.0000000000001
 30
50.99999999999989
 70
   192
  0
VERTEX
  5
5AE9
  8
0
 10
-179.5000000000003
 20
702.0000000000001
 30
50.99999999999989
 70
   192
  0
VERTEX
  5
5AEA
  8
0
 10
0.0
 20
0.0
 30
0.0
 70
   128
 71
     3
 72
     4
 73
    -1
  0
VERTEX
  5
5AEB
  8
0
 10
0.0
 20
0.0
 30
0.0
 70
   128
 71
     2
 72
    -3
 73
     1
  0
SEQEND
  5
5ECF
  8
0
  0
POLYLINE
  5
5AEC
  8
0
 66
     1
 10
0.0
 20
0.0
 30
0.0
 70
    64
 71
     4
 72
     2
  0
VERTEX
  5
5AED
  8
0
 10
-179.5000000000003
 20
702.0000000000001
 30
50.99999999999989
 70
   192
  0
VERTEX
  5
5AEE
  8
0
 10
-179.5000000000003
 20
724.0000000000001
 30
50.99999999999989
 70
   192
  0
VERTEX
  5
5AEF
  8
0
 10
-179.5000000000003
 20
724.0000000000001
 30
31.99999999999989
 70
   192
  0
VERTEX
  5
5AF0
  8
0
 10
-179.5000000000003
 20
702.0000000000001
 30
31.99999999999989
 70
   192
  0
VERTEX
  5
5AF1
  8
0
 10
0.0
 20
0.0
 30
0.0
 70
   128
 71
     3
 72
     4
 73
    -1
  0
VERTEX
  5
5AF2
  8
0
 10
0.0
 20
0.0
 30
0.0
 70
   128
 71
     2
 72
    -3
 73
     1
  0
SEQEND
  5
5ED0
  8
0
  0
POLYLINE
  5
5AF3
  8
0
 66
     1
 10
0.0
 20
0.0
 30
0.0
 70
    64
 71
     4
 72
     2
  0
VERTEX
  5
5AF4
  8
0
 10
-220.5000000000003
 20
702.0000000000001
 30
50.9999999999999
 70
   192
  0
VERTEX
  5
5AF5
  8
0
 10
-220.5000000000003
 20
702.0000000000001
 30
31.99999999999989
 70
   192
  0
VERTEX
  5
5AF6
  8
0
 10
-220.5000000000003
 20
724.0000000000001
 30
31.99999999999989
 70
   192
  0
VERTEX
  5
5AF7
  8
0
 10
-220.5000000000003
 20
724.0000000000001
 30
50.9999999999999
 70
   192
  0
VERTEX
  5
5AF8
  8
0
 10
0.0
 20
0.0
 30
0.0
 70
   128
 71
     3
 72
     4
 73
    -1
  0
VERTEX
  5
5AF9
  8
0
 10
0.0
 20
0.0
 30
0.0
 70
   128
 71
     2
 72
    -3
 73
     1
  0
SEQEND
  5
5ED1
  8
0
  0
POLYLINE
  5
5AFA
  8
0
 66
     1
 10
0.0
 20
0.0
 30
0.0
 70
    64
 71
     4
 72
     2
  0
VERTEX
  5
5AFB
  8
0
 10
-220.5000000000003
 20
702.0000000000001
 30
50.99999999999989
 70
   192
  0
VERTEX
  5
5AFC
  8
0
 10
-179.5000000000003
 20
702.0000000000001
 30
50.99999999999989
 70
   192
  0
VERTEX
  5
5AFD
  8
0
 10
-179.5000000000003
 20
702.0000000000001
 30
31.99999999999989
 70
   192
  0
VERTEX
  5
5AFE
  8
0
 10
-220.5000000000003
 20
702.0000000000001
 30
31.99999999999989
 70
   192
  0
VERTEX
  5
5AFF
  8
0
 10
0.0
 20
0.0
 30
0.0
 70
   128
 71
     3
 72
     4
 73
    -1
  0
VERTEX
  5
5B00
  8
0
 10
0.0
 20
0.0
 30
0.0
 70
   128
 71
     2
 72
    -3
 73
     1
  0
SEQEND
  5
5ED2
  8
0
  0
POLYLINE
  5
5B01
  8
0
 66
     1
 10
0.0
 20
0.0
 30
0.0
 70
    64
 71
    10
 72
     8
  0
VERTEX
  5
5B02
  8
0
 10
-168.7500000000003
 20
700.0000000000001
 30
45.99999999999991
 70
   192
  0
VERTEX
  5
5B03
  8
0
 10
-168.7500000000003
 20
700.0000000000001
 30
40.99999999999991
 70
   192
  0
VERTEX
  5
5B04
  8
0
 10
-168.7500000000003
 20
703.0000000000001
 30
40.99999999999991
 70
   192
  0
VERTEX
  5
5B05
  8
0
 10
-168.7500000000003
 20
703.0000000000001
 30
45.99999999999991
 70
   192
  0
VERTEX
  5
5B06
  8
0
 10
-166.2500000000003
 20
703.0000000000001
 30
43.49999999999991
 70
   192
  0
VERTEX
  5
5B07
  8
0
 10
-166.2500000000003
 20
700.0000000000001
 30
43.49999999999991
 70
   192
  0
VERTEX
  5
5B08
  8
0
 10
-166.9822330470339
 20
703.0000000000001
 30
45.26776695296628
 70
   192
  0
VERTEX
  5
5B09
  8
0
 10
-166.9822330470339
 20
700.0000000000001
 30
45.26776695296628
 70
   192
  0
VERTEX
  5
5B0A
  8
0
 10
-166.9822330470339
 20
703.0000000000001
 30
41.73223304703355
 70
   192
  0
VERTEX
  5
5B0B
  8
0
 10
-166.9822330470339
 20
700.0000000000001
 30
41.73223304703355
 70
   192
  0
VERTEX
  5
5B0C
  8
0
 10
0.0
 20
0.0
 30
0.0
 70
   128
 71
     8
 72
     1
 73
    -4
  0
VERTEX
  5
5B0D
  8
0
 10
0.0
 20
0.0
 30
0.0
 70
   128
 71
     7
 72
    -8
 73
     4
  0
VERTEX
  5
5B0E
  8
0
 10
0.0
 20
0.0
 30
0.0
 70
   128
 71
     6
 72
     8
 73
    -7
  0
VERTEX
  5
5B0F
  8
0
 10
0.0
 20
0.0
 30
0.0
 70
   128
 71
     5
 72
    -6
 73
     7
  0
VERTEX
  5
5B10
  8
0
 10
0.0
 20
0.0
 30
0.0
 70
   128
 71
    10
 72
     6
 73
    -5
  0
VERTEX
  5
5B11
  8
0
 10
0.0
 20
0.0
 30
0.0
 70
   128
 71
     9
 72
   -10
 73
     5
  0
VERTEX
  5
5B12
  8
0
 10
0.0
 20
0.0
 30
0.0
 70
   128
 71
     3
 72
     2
 73
   -10
  0
VERTEX
  5
5B13
  8
0
 10
0.0
 20
0.0
 30
0.0
 70
   128
 71
     9
 72
    -3
 73
    10
  0
SEQEND
  5
5ED3
  8
0
  0
POLYLINE
  5
5B14
  8
0
 66
     1
 10
0.0
 20
0.0
 30
0.0
 70
    64
 71
    10
 72
     8
  0
VERTEX
  5
5B15
  8
0
 10
-231.2500000000002
 20
700.0000000000001
 30
45.99999999999989
 70
   192
  0
VERTEX
  5
5B16
  8
0
 10
-231.2500000000002
 20
700.0000000000001
 30
40.99999999999989
 70
   192
  0
VERTEX
  5
5B17
  8
0
 10
-231.2500000000002
 20
703.0000000000001
 30
40.99999999999989
 70
   192
  0
VERTEX
  5
5B18
  8
0
 10
-231.2500000000002
 20
703.0000000000001
 30
45.99999999999989
 70
   192
  0
VERTEX
  5
5B19
  8
0
 10
-228.7500000000002
 20
703.0000000000001
 30
43.49999999999989
 70
   192
  0
VERTEX
  5
5B1A
  8
0
 10
-228.7500000000002
 20
700.0000000000001
 30
43.49999999999989
 70
   192
  0
VERTEX
  5
5B1B
  8
0
 10
-229.4822330470339
 20
703.0000000000001
 30
45.26776695296626
 70
   192
  0
VERTEX
  5
5B1C
  8
0
 10
-229.4822330470339
 20
700.0000000000001
 30
45.26776695296626
 70
   192
  0
VERTEX
  5
5B1D
  8
0
 10
-229.4822330470339
 20
703.0000000000001
 30
41.73223304703352
 70
   192
  0
VERTEX
  5
5B1E
  8
0
 10
-229.4822330470339
 20
700.0000000000001
 30
41.73223304703352
 70
   192
  0
VERTEX
  5
5B1F
  8
0
 10
0.0
 20
0.0
 30
0.0
 70
   128
 71
     8
 72
     1
 73
    -4
  0
VERTEX
  5
5B20
  8
0
 10
0.0
 20
0.0
 30
0.0
 70
   128
 71
     7
 72
    -8
 73
     4
  0
VERTEX
  5
5B21
  8
0
 10
0.0
 20
0.0
 30
0.0
 70
   128
 71
     6
 72
     8
 73
    -7
  0
VERTEX
  5
5B22
  8
0
 10
0.0
 20
0.0
 30
0.0
 70
   128
 71
     5
 72
    -6
 73
     7
  0
VERTEX
  5
5B23
  8
0
 10
0.0
 20
0.0
 30
0.0
 70
   128
 71
    10
 72
     6
 73
    -5
  0
VERTEX
  5
5B24
  8
0
 10
0.0
 20
0.0
 30
0.0
 70
   128
 71
     9
 72
   -10
 73
     5
  0
VERTEX
  5
5B25
  8
0
 10
0.0
 20
0.0
 30
0.0
 70
   128
 71
     3
 72
     2
 73
   -10
  0
VERTEX
  5
5B26
  8
0
 10
0.0
 20
0.0
 30
0.0
 70
   128
 71
     9
 72
    -3
 73
    10
  0
SEQEND
  5
5ED4
  8
0
  0
ENDBLK
  5
5EC0
  8
0
  0
BLOCK
  8
0
  2
*X33
 70
     1
 10
0.0
 20
0.0
 30
0.0
  3
*X33
  1

  0
POLYLINE
  5
5B28
  8
0
 66
     1
 10
0.0
 20
0.0
 30
0.0
 70
    64
 71
    10
 72
     8
  0
VERTEX
  5
5B29
  8
0
 10
168.7499999999998
 20
700.0000000000001
 30
41.00000000000026
 70
   192
  0
VERTEX
  5
5B2A
  8
0
 10
168.7499999999998
 20
700.0000000000001
 30
46.00000000000026
 70
   192
  0
VERTEX
  5
5B2B
  8
0
 10
168.7499999999998
 20
703.0000000000001
 30
46.00000000000026
 70
   192
  0
VERTEX
  5
5B2C
  8
0
 10
168.7499999999998
 20
703.0000000000001
 30
41.00000000000026
 70
   192
  0
VERTEX
  5
5B2D
  8
0
 10
166.2499999999998
 20
703.0000000000001
 30
43.50000000000026
 70
   192
  0
VERTEX
  5
5B2E
  8
0
 10
166.2499999999998
 20
700.0000000000001
 30
43.50000000000026
 70
   192
  0
VERTEX
  5
5B2F
  8
0
 10
166.9822330470334
 20
703.0000000000001
 30
41.73223304703389
 70
   192
  0
VERTEX
  5
5B30
  8
0
 10
166.9822330470334
 20
700.0000000000001
 30
41.73223304703389
 70
   192
  0
VERTEX
  5
5B31
  8
0
 10
166.9822330470334
 20
703.0000000000001
 30
45.26776695296663
 70
   192
  0
VERTEX
  5
5B32
  8
0
 10
166.9822330470334
 20
700.0000000000001
 30
45.26776695296663
 70
   192
  0
VERTEX
  5
5B33
  8
0
 10
0.0
 20
0.0
 30
0.0
 70
   128
 71
     8
 72
     1
 73
    -4
  0
VERTEX
  5
5B34
  8
0
 10
0.0
 20
0.0
 30
0.0
 70
   128
 71
     7
 72
    -8
 73
     4
  0
VERTEX
  5
5B35
  8
0
 10
0.0
 20
0.0
 30
0.0
 70
   128
 71
     6
 72
     8
 73
    -7
  0
VERTEX
  5
5B36
  8
0
 10
0.0
 20
0.0
 30
0.0
 70
   128
 71
     5
 72
    -6
 73
     7
  0
VERTEX
  5
5B37
  8
0
 10
0.0
 20
0.0
 30
0.0
 70
   128
 71
    10
 72
     6
 73
    -5
  0
VERTEX
  5
5B38
  8
0
 10
0.0
 20
0.0
 30
0.0
 70
   128
 71
     9
 72
   -10
 73
     5
  0
VERTEX
  5
5B39
  8
0
 10
0.0
 20
0.0
 30
0.0
 70
   128
 71
     2
 72
    10
 73
    -9
  0
VERTEX
  5
5B3A
  8
0
 10
0.0
 20
0.0
 30
0.0
 70
   128
 71
     3
 72
    -2
 73
     9
  0
SEQEND
  5
5ED7
  8
0
  0
POLYLINE
  5
5B3B
  8
0
 66
     1
 10
0.0
 20
0.0
 30
0.0
 70
    64
 71
    10
 72
     8
  0
VERTEX
  5
5B3C
  8
0
 10
231.2499999999998
 20
700.0000000000001
 30
41.00000000000028
 70
   192
  0
VERTEX
  5
5B3D
  8
0
 10
231.2499999999998
 20
700.0000000000001
 30
46.00000000000028
 70
   192
  0
VERTEX
  5
5B3E
  8
0
 10
231.2499999999998
 20
703.0000000000001
 30
46.00000000000028
 70
   192
  0
VERTEX
  5
5B3F
  8
0
 10
231.2499999999998
 20
703.0000000000001
 30
41.00000000000028
 70
   192
  0
VERTEX
  5
5B40
  8
0
 10
228.7499999999998
 20
703.0000000000001
 30
43.50000000000028
 70
   192
  0
VERTEX
  5
5B41
  8
0
 10
228.7499999999998
 20
700.0000000000001
 30
43.50000000000028
 70
   192
  0
VERTEX
  5
5B42
  8
0
 10
229.4822330470334
 20
703.0000000000001
 30
41.73223304703392
 70
   192
  0
VERTEX
  5
5B43
  8
0
 10
229.4822330470334
 20
700.0000000000001
 30
41.73223304703392
 70
   192
  0
VERTEX
  5
5B44
  8
0
 10
229.4822330470334
 20
703.0000000000001
 30
45.26776695296665
 70
   192
  0
VERTEX
  5
5B45
  8
0
 10
229.4822330470334
 20
700.0000000000001
 30
45.26776695296665
 70
   192
  0
VERTEX
  5
5B46
  8
0
 10
0.0
 20
0.0
 30
0.0
 70
   128
 71
     8
 72
     1
 73
    -4
  0
VERTEX
  5
5B47
  8
0
 10
0.0
 20
0.0
 30
0.0
 70
   128
 71
     7
 72
    -8
 73
     4
  0
VERTEX
  5
5B48
  8
0
 10
0.0
 20
0.0
 30
0.0
 70
   128
 71
     6
 72
     8
 73
    -7
  0
VERTEX
  5
5B49
  8
0
 10
0.0
 20
0.0
 30
0.0
 70
   128
 71
     5
 72
    -6
 73
     7
  0
VERTEX
  5
5B4A
  8
0
 10
0.0
 20
0.0
 30
0.0
 70
   128
 71
    10
 72
     6
 73
    -5
  0
VERTEX
  5
5B4B
  8
0
 10
0.0
 20
0.0
 30
0.0
 70
   128
 71
     9
 72
   -10
 73
     5
  0
VERTEX
  5
5B4C
  8
0
 10
0.0
 20
0.0
 30
0.0
 70
   128
 71
     2
 72
    10
 73
    -9
  0
VERTEX
  5
5B4D
  8
0
 10
0.0
 20
0.0
 30
0.0
 70
   128
 71
     3
 72
    -2
 73
     9
  0
SEQEND
  5
5ED8
  8
0
  0
POLYLINE
  5
5B4E
  8
0
 66
     1
 10
0.0
 20
0.0
 30
0.0
 70
    64
 71
    12
 72
    12
  0
VERTEX
  5
5B4F
  8
0
 10
177.4999999999998
 20
703.0000000000001
 30
53.00000000000027
 70
   192
  0
VERTEX
  5
5B50
  8
0
 10
177.4999999999998
 20
703.0000000000001
 30
34.00000000000027
 70
   192
  0
VERTEX
  5
5B51
  8
0
 10
159.9999999999998
 20
703.0000000000001
 30
34.00000000000027
 70
   192
  0
VERTEX
  5
5B52
  8
0
 10
159.9999999999998
 20
703.0000000000001
 30
53.00000000000027
 70
   192
  0
VERTEX
  5
5B53
  8
0
 10
168.7499999999998
 20
703.0000000000001
 30
41.00000000000026
 70
   192
  0
VERTEX
  5
5B54
  8
0
 10
170.5177669529661
 20
703.0000000000001
 30
41.73223304703389
 70
   192
  0
VERTEX
  5
5B55
  8
0
 10
171.2499999999998
 20
703.0000000000001
 30
43.50000000000026
 70
   192
  0
VERTEX
  5
5B56
  8
0
 10
170.5177669529661
 20
703.0000000000001
 30
45.26776695296663
 70
   192
  0
VERTEX
  5
5B57
  8
0
 10
168.7499999999998
 20
703.0000000000001
 30
46.00000000000026
 70
   192
  0
VERTEX
  5
5B58
  8
0
 10
166.9822330470334
 20
703.0000000000001
 30
45.26776695296663
 70
   192
  0
VERTEX
  5
5B59
  8
0
 10
166.2499999999998
 20
703.0000000000001
 30
43.50000000000026
 70
   192
  0
VERTEX
  5
5B5A
  8
0
 10
166.9822330470334
 20
703.0000000000001
 30
41.73223304703389
 70
   192
  0
VERTEX
  5
5B5B
  8
0
 10
0.0
 20
0.0
 30
0.0
 70
   128
 71
    -2
 72
     5
 73
    -6
  0
VERTEX
  5
5B5C
  8
0
 10
0.0
 20
0.0
 30
0.0
 70
   128
 71
     6
 72
    -7
 73
    -2
  0
VERTEX
  5
5B5D
  8
0
 10
0.0
 20
0.0
 30
0.0
 70
   128
 71
    -8
 72
     1
 73
    -2
  0
VERTEX
  5
5B5E
  8
0
 10
0.0
 20
0.0
 30
0.0
 70
   128
 71
     7
 72
    -8
 73
    -2
  0
VERTEX
  5
5B5F
  8
0
 10
0.0
 20
0.0
 30
0.0
 70
   128
 71
     8
 72
    -9
 73
    -1
  0
VERTEX
  5
5B60
  8
0
 10
0.0
 20
0.0
 30
0.0
 70
   128
 71
   -10
 72
     4
 73
    -1
  0
VERTEX
  5
5B61
  8
0
 10
0.0
 20
0.0
 30
0.0
 70
   128
 71
     9
 72
   -10
 73
    -1
  0
VERTEX
  5
5B62
  8
0
 10
0.0
 20
0.0
 30
0.0
 70
   128
 71
   -11
 72
     3
 73
    -4
  0
VERTEX
  5
5B63
  8
0
 10
0.0
 20
0.0
 30
0.0
 70
   128
 71
    10
 72
   -11
 73
    -4
  0
VERTEX
  5
5B64
  8
0
 10
0.0
 20
0.0
 30
0.0
 70
   128
 71
    11
 72
   -12
 73
    -3
  0
VERTEX
  5
5B65
  8
0
 10
0.0
 20
0.0
 30
0.0
 70
   128
 71
    -5
 72
     2
 73
    -3
  0
VERTEX
  5
5B66
  8
0
 10
0.0
 20
0.0
 30
0.0
 70
   128
 71
    12
 72
    -5
 73
    -3
  0
SEQEND
  5
5ED9
  8
0
  0
POLYLINE
  5
5B67
  8
0
 66
     1
 10
0.0
 20
0.0
 30
0.0
 70
    64
 71
     4
 72
     2
  0
VERTEX
  5
5B68
  8
0
 10
159.9999999999998
 20
700.0000000000001
 30
34.00000000000027
 70
   192
  0
VERTEX
  5
5B69
  8
0
 10
159.9999999999998
 20
703.0000000000001
 30
34.00000000000027
 70
   192
  0
VERTEX
  5
5B6A
  8
0
 10
159.9999999999998
 20
703.0000000000001
 30
53.00000000000027
 70
   192
  0
VERTEX
  5
5B6B
  8
0
 10
159.9999999999998
 20
700.0000000000001
 30
53.00000000000027
 70
   192
  0
VERTEX
  5
5B6C
  8
0
 10
0.0
 20
0.0
 30
0.0
 70
   128
 71
     1
 72
     4
 73
    -3
  0
VERTEX
  5
5B6D
  8
0
 10
0.0
 20
0.0
 30
0.0
 70
   128
 71
    -1
 72
     3
 73
     2
  0
SEQEND
  5
5EDA
  8
0
  0
POLYLINE
  5
5B6E
  8
0
 66
     1
 10
0.0
 20
0.0
 30
0.0
 70
    64
 71
     8
 72
     6
  0
VERTEX
  5
5B6F
  8
0
 10
159.9999999999998
 20
700.0000000000001
 30
53.00000000000027
 70
   192
  0
VERTEX
  5
5B70
  8
0
 10
159.9999999999998
 20
703.0000000000001
 30
53.00000000000027
 70
   192
  0
VERTEX
  5
5B71
  8
0
 10
177.4999999999998
 20
703.0000000000001
 30
53.00000000000027
 70
   192
  0
VERTEX
  5
5B72
  8
0
 10
177.4999999999998
 20
724.0000000000001
 30
53.00000000000027
 70
   192
  0
VERTEX
  5
5B73
  8
0
 10
222.4999999999998
 20
724.0000000000001
 30
53.00000000000027
 70
   192
  0
VERTEX
  5
5B74
  8
0
 10
222.4999999999998
 20
703.0000000000001
 30
53.00000000000026
 70
   192
  0
VERTEX
  5
5B75
  8
0
 10
239.9999999999998
 20
703.0000000000001
 30
53.00000000000026
 70
   192
  0
VERTEX
  5
5B76
  8
0
 10
239.9999999999998
 20
700.0000000000001
 30
53.00000000000026
 70
   192
  0
VERTEX
  5
5B77
  8
0
 10
0.0
 20
0.0
 30
0.0
 70
   128
 71
     3
 72
     2
 73
    -1
  0
VERTEX
  5
5B78
  8
0
 10
0.0
 20
0.0
 30
0.0
 70
   128
 71
    -3
 72
    -1
 73
    -6
  0
VERTEX
  5
5B79
  8
0
 10
0.0
 20
0.0
 30
0.0
 70
   128
 71
     6
 72
     5
 73
    -4
  0
VERTEX
  5
5B7A
  8
0
 10
0.0
 20
0.0
 30
0.0
 70
   128
 71
    -6
 72
     4
 73
    -3
  0
VERTEX
  5
5B7B
  8
0
 10
0.0
 20
0.0
 30
0.0
 70
   128
 71
     1
 72
    -8
 73
    -6
  0
VERTEX
  5
5B7C
  8
0
 10
0.0
 20
0.0
 30
0.0
 70
   128
 71
     8
 72
     7
 73
    -6
  0
SEQEND
  5
5EDB
  8
0
  0
POLYLINE
  5
5B7D
  8
0
 66
     1
 10
0.0
 20
0.0
 30
0.0
 70
    64
 71
     4
 72
     2
  0
VERTEX
  5
5B7E
  8
0
 10
239.9999999999998
 20
700.0000000000001
 30
53.00000000000026
 70
   192
  0
VERTEX
  5
5B7F
  8
0
 10
239.9999999999998
 20
703.0000000000001
 30
53.00000000000026
 70
   192
  0
VERTEX
  5
5B80
  8
0
 10
239.9999999999998
 20
703.0000000000001
 30
34.00000000000026
 70
   192
  0
VERTEX
  5
5B81
  8
0
 10
239.9999999999998
 20
700.0000000000001
 30
34.00000000000026
 70
   192
  0
VERTEX
  5
5B82
  8
0
 10
0.0
 20
0.0
 30
0.0
 70
   128
 71
     1
 72
     4
 73
    -3
  0
VERTEX
  5
5B83
  8
0
 10
0.0
 20
0.0
 30
0.0
 70
   128
 71
    -1
 72
     3
 73
     2
  0
SEQEND
  5
5EDC
  8
0
  0
POLYLINE
  5
5B84
  8
0
 66
     1
 10
0.0
 20
0.0
 30
0.0
 70
    64
 71
     4
 72
     2
  0
VERTEX
  5
5B85
  8
0
 10
239.9999999999998
 20
700.0000000000001
 30
34.00000000000026
 70
   192
  0
VERTEX
  5
5B86
  8
0
 10
239.9999999999998
 20
703.0000000000001
 30
34.00000000000026
 70
   192
  0
VERTEX
  5
5B87
  8
0
 10
222.4999999999998
 20
703.0000000000001
 30
34.00000000000027
 70
   192
  0
VERTEX
  5
5B88
  8
0
 10
222.4999999999998
 20
700.0000000000001
 30
34.00000000000026
 70
   192
  0
VERTEX
  5
5B89
  8
0
 10
0.0
 20
0.0
 30
0.0
 70
   128
 71
     1
 72
     4
 73
    -3
  0
VERTEX
  5
5B8A
  8
0
 10
0.0
 20
0.0
 30
0.0
 70
   128
 71
    -1
 72
     3
 73
     2
  0
SEQEND
  5
5EDD
  8
0
  0
POLYLINE
  5
5B8B
  8
0
 66
     1
 10
0.0
 20
0.0
 30
0.0
 70
    64
 71
     6
 72
     4
  0
VERTEX
  5
5B8C
  8
0
 10
222.4999999999998
 20
700.0000000000001
 30
34.00000000000027
 70
   192
  0
VERTEX
  5
5B8D
  8
0
 10
222.4999999999998
 20
703.0000000000001
 30
34.00000000000027
 70
   192
  0
VERTEX
  5
5B8E
  8
0
 10
222.4999999999998
 20
703.0000000000001
 30
53.00000000000027
 70
   192
  0
VERTEX
  5
5B8F
  8
0
 10
222.4999999999998
 20
724.0000000000001
 30
53.00000000000027
 70
   192
  0
VERTEX
  5
5B90
  8
0
 10
222.4999999999998
 20
724.0000000000001
 30
32.00000000000026
 70
   192
  0
VERTEX
  5
5B91
  8
0
 10
222.4999999999998
 20
700.0000000000001
 30
32.00000000000026
 70
   192
  0
VERTEX
  5
5B92
  8
0
 10
0.0
 20
0.0
 30
0.0
 70
   128
 71
     2
 72
     1
 73
    -6
  0
VERTEX
  5
5B93
  8
0
 10
0.0
 20
0.0
 30
0.0
 70
   128
 71
    -2
 72
     6
 73
    -5
  0
VERTEX
  5
5B94
  8
0
 10
0.0
 20
0.0
 30
0.0
 70
   128
 71
     5
 72
     4
 73
    -3
  0
VERTEX
  5
5B95
  8
0
 10
0.0
 20
0.0
 30
0.0
 70
   128
 71
    -5
 72
     3
 73
    -2
  0
SEQEND
  5
5EDE
  8
0
  0
POLYLINE
  5
5B96
  8
0
 66
     1
 10
0.0
 20
0.0
 30
0.0
 70
    64
 71
     8
 72
     6
  0
VERTEX
  5
5B97
  8
0
 10
177.4999999999998
 20
724.0000000000001
 30
32.00000000000026
 70
   192
  0
VERTEX
  5
5B98
  8
0
 10
177.4999999999998
 20
700.0000000000001
 30
32.00000000000026
 70
   192
  0
VERTEX
  5
5B99
  8
0
 10
222.4999999999998
 20
700.0000000000001
 30
32.00000000000026
 70
   192
  0
VERTEX
  5
5B9A
  8
0
 10
222.4999999999998
 20
724.0000000000001
 30
32.00000000000026
 70
   192
  0
VERTEX
  5
5B9B
  8
0
 10
220.4999999999998
 20
724.0000000000001
 30
32.00000000000026
 70
   192
  0
VERTEX
  5
5B9C
  8
0
 10
220.4999999999998
 20
702.0000000000001
 30
32.00000000000026
 70
   192
  0
VERTEX
  5
5B9D
  8
0
 10
179.4999999999998
 20
702.0000000000001
 30
32.00000000000026
 70
   192
  0
VERTEX
  5
5B9E
  8
0
 10
179.4999999999998
 20
724.0000000000001
 30
32.00000000000026
 70
   192
  0
VERTEX
  5
5B9F
  8
0
 10
0.0
 20
0.0
 30
0.0
 70
   128
 71
     6
 72
     5
 73
    -4
  0
VERTEX
  5
5BA0
  8
0
 10
0.0
 20
0.0
 30
0.0
 70
   128
 71
    -6
 72
     4
 73
    -3
  0
VERTEX
  5
5BA1
  8
0
 10
0.0
 20
0.0
 30
0.0
 70
   128
 71
     3
 72
    -2
 73
    -7
  0
VERTEX
  5
5BA2
  8
0
 10
0.0
 20
0.0
 30
0.0
 70
   128
 71
    -3
 72
     7
 73
    -6
  0
VERTEX
  5
5BA3
  8
0
 10
0.0
 20
0.0
 30
0.0
 70
   128
 71
     2
 72
     1
 73
    -8
  0
VERTEX
  5
5BA4
  8
0
 10
0.0
 20
0.0
 30
0.0
 70
   128
 71
    -2
 72
     8
 73
    -7
  0
SEQEND
  5
5EDF
  8
0
  0
POLYLINE
  5
5BA5
  8
0
 66
     1
 10
0.0
 20
0.0
 30
0.0
 70
    64
 71
     6
 72
     4
  0
VERTEX
  5
5BA6
  8
0
 10
177.4999999999998
 20
700.0000000000001
 30
32.00000000000026
 70
   192
  0
VERTEX
  5
5BA7
  8
0
 10
177.4999999999998
 20
724.0000000000001
 30
32.00000000000026
 70
   192
  0
VERTEX
  5
5BA8
  8
0
 10
177.4999999999998
 20
724.0000000000001
 30
53.00000000000027
 70
   192
  0
VERTEX
  5
5BA9
  8
0
 10
177.4999999999998
 20
703.0000000000001
 30
53.00000000000027
 70
   192
  0
VERTEX
  5
5BAA
  8
0
 10
177.4999999999998
 20
703.0000000000001
 30
34.00000000000027
 70
   192
  0
VERTEX
  5
5BAB
  8
0
 10
177.4999999999998
 20
700.0000000000001
 30
34.00000000000027
 70
   192
  0
VERTEX
  5
5BAC
  8
0
 10
0.0
 20
0.0
 30
0.0
 70
   128
 71
     5
 72
     4
 73
    -3
  0
VERTEX
  5
5BAD
  8
0
 10
0.0
 20
0.0
 30
0.0
 70
   128
 71
    -5
 72
     3
 73
    -2
  0
VERTEX
  5
5BAE
  8
0
 10
0.0
 20
0.0
 30
0.0
 70
   128
 71
     2
 72
    -1
 73
    -5
  0
VERTEX
  5
5BAF
  8
0
 10
0.0
 20
0.0
 30
0.0
 70
   128
 71
     1
 72
     6
 73
    -5
  0
SEQEND
  5
5EE0
  8
0
  0
POLYLINE
  5
5BB0
  8
0
 66
     1
 10
0.0
 20
0.0
 30
0.0
 70
    64
 71
     4
 72
     2
  0
VERTEX
  5
5BB1
  8
0
 10
177.4999999999998
 20
700.0000000000001
 30
34.00000000000027
 70
   192
  0
VERTEX
  5
5BB2
  8
0
 10
177.4999999999998
 20
703.0000000000001
 30
34.00000000000027
 70
   192
  0
VERTEX
  5
5BB3
  8
0
 10
159.9999999999998
 20
703.0000000000001
 30
34.00000000000027
 70
   192
  0
VERTEX
  5
5BB4
  8
0
 10
159.9999999999998
 20
700.0000000000001
 30
34.00000000000027
 70
   192
  0
VERTEX
  5
5BB5
  8
0
 10
0.0
 20
0.0
 30
0.0
 70
   128
 71
     1
 72
     4
 73
    -3
  0
VERTEX
  5
5BB6
  8
0
 10
0.0
 20
0.0
 30
0.0
 70
   128
 71
    -1
 72
     3
 73
     2
  0
SEQEND
  5
5EE1
  8
0
  0
POLYLINE
  5
5BB7
  8
0
 66
     1
 10
0.0
 20
0.0
 30
0.0
 70
    64
 71
    12
 72
    12
  0
VERTEX
  5
5BB8
  8
0
 10
222.4999999999998
 20
703.0000000000001
 30
34.00000000000027
 70
   192
  0
VERTEX
  5
5BB9
  8
0
 10
222.4999999999998
 20
703.0000000000001
 30
53.00000000000026
 70
   192
  0
VERTEX
  5
5BBA
  8
0
 10
239.9999999999998
 20
703.0000000000001
 30
53.00000000000026
 70
   192
  0
VERTEX
  5
5BBB
  8
0
 10
239.9999999999998
 20
703.0000000000001
 30
34.00000000000026
 70
   192
  0
VERTEX
  5
5BBC
  8
0
 10
231.2499999999998
 20
703.0000000000001
 30
41.00000000000028
 70
   192
  0
VERTEX
  5
5BBD
  8
0
 10
233.0177669529662
 20
703.0000000000001
 30
41.73223304703392
 70
   192
  0
VERTEX
  5
5BBE
  8
0
 10
233.7499999999998
 20
703.0000000000001
 30
43.50000000000028
 70
   192
  0
VERTEX
  5
5BBF
  8
0
 10
233.0177669529661
 20
703.0000000000001
 30
45.26776695296665
 70
   192
  0
VERTEX
  5
5BC0
  8
0
 10
231.2499999999998
 20
703.0000000000001
 30
46.00000000000028
 70
   192
  0
VERTEX
  5
5BC1
  8
0
 10
229.4822330470334
 20
703.0000000000001
 30
45.26776695296665
 70
   192
  0
VERTEX
  5
5BC2
  8
0
 10
228.7499999999998
 20
703.0000000000001
 30
43.50000000000028
 70
   192
  0
VERTEX
  5
5BC3
  8
0
 10
229.4822330470334
 20
703.0000000000001
 30
41.73223304703392
 70
   192
  0
VERTEX
  5
5BC4
  8
0
 10
0.0
 20
0.0
 30
0.0
 70
   128
 71
    -1
 72
     5
 73
    -6
  0
VERTEX
  5
5BC5
  8
0
 10
0.0
 20
0.0
 30
0.0
 70
   128
 71
     4
 72
    -1
 73
    -6
  0
VERTEX
  5
5BC6
  8
0
 10
0.0
 20
0.0
 30
0.0
 70
   128
 71
    -7
 72
     3
 73
    -4
  0
VERTEX
  5
5BC7
  8
0
 10
0.0
 20
0.0
 30
0.0
 70
   128
 71
     6
 72
    -7
 73
    -4
  0
VERTEX
  5
5BC8
  8
0
 10
0.0
 20
0.0
 30
0.0
 70
   128
 71
     7
 72
    -8
 73
    -3
  0
VERTEX
  5
5BC9
  8
0
 10
0.0
 20
0.0
 30
0.0
 70
   128
 71
     8
 72
    -9
 73
    -3
  0
VERTEX
  5
5BCA
  8
0
 10
0.0
 20
0.0
 30
0.0
 70
   128
 71
   -10
 72
     2
 73
    -3
  0
VERTEX
  5
5BCB
  8
0
 10
0.0
 20
0.0
 30
0.0
 70
   128
 71
     9
 72
   -10
 73
    -3
  0
VERTEX
  5
5BCC
  8
0
 10
0.0
 20
0.0
 30
0.0
 70
   128
 71
    10
 72
   -11
 73
    -2
  0
VERTEX
  5
5BCD
  8
0
 10
0.0
 20
0.0
 30
0.0
 70
   128
 71
   -12
 72
     1
 73
    -2
  0
VERTEX
  5
5BCE
  8
0
 10
0.0
 20
0.0
 30
0.0
 70
   128
 71
    11
 72
   -12
 73
    -2
  0
VERTEX
  5
5BCF
  8
0
 10
0.0
 20
0.0
 30
0.0
 70
   128
 71
    12
 72
    -5
 73
    -1
  0
SEQEND
  5
5EE2
  8
0
  0
POLYLINE
  5
5BD0
  8
0
 66
     1
 10
0.0
 20
0.0
 30
0.0
 70
    64
 71
    24
 72
    26
  0
VERTEX
  5
5BD1
  8
0
 10
159.9999999999998
 20
700.0000000000001
 30
53.00000000000027
 70
   192
  0
VERTEX
  5
5BD2
  8
0
 10
239.9999999999998
 20
700.0000000000001
 30
53.00000000000026
 70
   192
  0
VERTEX
  5
5BD3
  8
0
 10
239.9999999999998
 20
700.0000000000001
 30
34.00000000000026
 70
   192
  0
VERTEX
  5
5BD4
  8
0
 10
222.4999999999998
 20
700.0000000000001
 30
34.00000000000027
 70
   192
  0
VERTEX
  5
5BD5
  8
0
 10
222.4999999999998
 20
700.0000000000001
 30
32.00000000000026
 70
   192
  0
VERTEX
  5
5BD6
  8
0
 10
177.4999999999998
 20
700.0000000000001
 30
32.00000000000026
 70
   192
  0
VERTEX
  5
5BD7
  8
0
 10
177.4999999999998
 20
700.0000000000001
 30
34.00000000000027
 70
   192
  0
VERTEX
  5
5BD8
  8
0
 10
159.9999999999998
 20
700.0000000000001
 30
34.00000000000027
 70
   192
  0
VERTEX
  5
5BD9
  8
0
 10
231.2499999999998
 20
700.0000000000001
 30
41.00000000000028
 70
   192
  0
VERTEX
  5
5BDA
  8
0
 10
233.0177669529661
 20
700.0000000000001
 30
41.73223304703392
 70
   192
  0
VERTEX
  5
5BDB
  8
0
 10
233.7499999999998
 20
700.0000000000001
 30
43.50000000000028
 70
   192
  0
VERTEX
  5
5BDC
  8
0
 10
233.0177669529662
 20
700.0000000000001
 30
45.26776695296665
 70
   192
  0
VERTEX
  5
5BDD
  8
0
 10
231.2499999999998
 20
700.0000000000001
 30
46.00000000000028
 70
   192
  0
VERTEX
  5
5BDE
  8
0
 10
229.4822330470334
 20
700.0000000000001
 30
45.26776695296665
 70
   192
  0
VERTEX
  5
5BDF
  8
0
 10
228.7499999999998
 20
700.0000000000001
 30
43.50000000000028
 70
   192
  0
VERTEX
  5
5BE0
  8
0
 10
229.4822330470334
 20
700.0000000000001
 30
41.73223304703392
 70
   192
  0
VERTEX
  5
5BE1
  8
0
 10
168.7499999999998
 20
700.0000000000001
 30
41.00000000000026
 70
   192
  0
VERTEX
  5
5BE2
  8
0
 10
170.5177669529661
 20
700.0000000000001
 30
41.73223304703389
 70
   192
  0
VERTEX
  5
5BE3
  8
0
 10
171.2499999999998
 20
700.0000000000001
 30
43.50000000000026
 70
   192
  0
VERTEX
  5
5BE4
  8
0
 10
170.5177669529661
 20
700.0000000000001
 30
45.26776695296663
 70
   192
  0
VERTEX
  5
5BE5
  8
0
 10
168.7499999999998
 20
700.0000000000001
 30
46.00000000000026
 70
   192
  0
VERTEX
  5
5BE6
  8
0
 10
166.9822330470334
 20
700.0000000000001
 30
45.26776695296663
 70
   192
  0
VERTEX
  5
5BE7
  8
0
 10
166.2499999999998
 20
700.0000000000001
 30
43.50000000000026
 70
   192
  0
VERTEX
  5
5BE8
  8
0
 10
166.9822330470334
 20
700.0000000000001
 30
41.73223304703389
 70
   192
  0
VERTEX
  5
5BE9
  8
0
 10
0.0
 20
0.0
 30
0.0
 70
   128
 71
     7
 72
     6
 73
    -5
  0
VERTEX
  5
5BEA
  8
0
 10
0.0
 20
0.0
 30
0.0
 70
   128
 71
    10
 72
    -9
 73
    -4
  0
VERTEX
  5
5BEB
  8
0
 10
0.0
 20
0.0
 30
0.0
 70
   128
 71
   -10
 72
     4
 73
    -3
  0
VERTEX
  5
5BEC
  8
0
 10
0.0
 20
0.0
 30
0.0
 70
   128
 71
     3
 72
    -2
 73
   -11
  0
VERTEX
  5
5BED
  8
0
 10
0.0
 20
0.0
 30
0.0
 70
   128
 71
    -3
 72
    11
 73
   -10
  0
VERTEX
  5
5BEE
  8
0
 10
0.0
 20
0.0
 30
0.0
 70
   128
 71
    -2
 72
    12
 73
   -11
  0
VERTEX
  5
5BEF
  8
0
 10
0.0
 20
0.0
 30
0.0
 70
   128
 71
    -2
 72
    13
 73
   -12
  0
VERTEX
  5
5BF0
  8
0
 10
0.0
 20
0.0
 30
0.0
 70
   128
 71
    -2
 72
    14
 73
   -13
  0
VERTEX
  5
5BF1
  8
0
 10
0.0
 20
0.0
 30
0.0
 70
   128
 71
    20
 72
   -19
 73
   -15
  0
VERTEX
  5
5BF2
  8
0
 10
0.0
 20
0.0
 30
0.0
 70
   128
 71
   -14
 72
     2
 73
    -1
  0
VERTEX
  5
5BF3
  8
0
 10
0.0
 20
0.0
 30
0.0
 70
   128
 71
   -14
 72
    -1
 73
   -20
  0
VERTEX
  5
5BF4
  8
0
 10
0.0
 20
0.0
 30
0.0
 70
   128
 71
   -20
 72
    15
 73
   -14
  0
VERTEX
  5
5BF5
  8
0
 10
0.0
 20
0.0
 30
0.0
 70
   128
 71
    -1
 72
    21
 73
   -20
  0
VERTEX
  5
5BF6
  8
0
 10
0.0
 20
0.0
 30
0.0
 70
   128
 71
    -1
 72
    22
 73
   -21
  0
VERTEX
  5
5BF7
  8
0
 10
0.0
 20
0.0
 30
0.0
 70
   128
 71
     1
 72
    -8
 73
   -23
  0
VERTEX
  5
5BF8
  8
0
 10
0.0
 20
0.0
 30
0.0
 70
   128
 71
    -1
 72
    23
 73
   -22
  0
VERTEX
  5
5BF9
  8
0
 10
0.0
 20
0.0
 30
0.0
 70
   128
 71
    -8
 72
    24
 73
   -23
  0
VERTEX
  5
5BFA
  8
0
 10
0.0
 20
0.0
 30
0.0
 70
   128
 71
     8
 72
    -7
 73
   -17
  0
VERTEX
  5
5BFB
  8
0
 10
0.0
 20
0.0
 30
0.0
 70
   128
 71
    -8
 72
    17
 73
   -24
  0
VERTEX
  5
5BFC
  8
0
 10
0.0
 20
0.0
 30
0.0
 70
   128
 71
    18
 72
   -17
 73
    -7
  0
VERTEX
  5
5BFD
  8
0
 10
0.0
 20
0.0
 30
0.0
 70
   128
 71
    -7
 72
    -4
 73
   -16
  0
VERTEX
  5
5BFE
  8
0
 10
0.0
 20
0.0
 30
0.0
 70
   128
 71
    -7
 72
    16
 73
   -15
  0
VERTEX
  5
5BFF
  8
0
 10
0.0
 20
0.0
 30
0.0
 70
   128
 71
    -7
 72
   -15
 73
   -19
  0
VERTEX
  5
5C00
  8
0
 10
0.0
 20
0.0
 30
0.0
 70
   128
 71
    -7
 72
    19
 73
   -18
  0
VERTEX
  5
5C01
  8
0
 10
0.0
 20
0.0
 30
0.0
 70
   128
 71
    -4
 72
     9
 73
   -16
  0
VERTEX
  5
5C02
  8
0
 10
0.0
 20
0.0
 30
0.0
 70
   128
 71
    -7
 72
     5
 73
    -4
  0
SEQEND
  5
5EE3
  8
0
  0
POLYLINE
  5
5C03
  8
0
 66
     1
 10
0.0
 20
0.0
 30
0.0
 70
    64
 71
     8
 72
     6
  0
VERTEX
  5
5C04
  8
0
 10
179.4999999999997
 20
724.0000000000001
 30
51.00000000000027
 70
   192
  0
VERTEX
  5
5C05
  8
0
 10
179.4999999999998
 20
724.0000000000001
 30
32.00000000000026
 70
   192
  0
VERTEX
  5
5C06
  8
0
 10
177.4999999999998
 20
724.0000000000001
 30
32.00000000000026
 70
   192
  0
VERTEX
  5
5C07
  8
0
 10
177.4999999999998
 20
724.0000000000001
 30
53.00000000000027
 70
   192
  0
VERTEX
  5
5C08
  8
0
 10
222.4999999999998
 20
724.0000000000001
 30
53.00000000000027
 70
   192
  0
VERTEX
  5
5C09
  8
0
 10
222.4999999999998
 20
724.0000000000001
 30
32.00000000000026
 70
   192
  0
VERTEX
  5
5C0A
  8
0
 10
220.4999999999998
 20
724.0000000000001
 30
32.00000000000026
 70
   192
  0
VERTEX
  5
5C0B
  8
0
 10
220.4999999999997
 20
724.0000000000001
 30
51.00000000000026
 70
   192
  0
VERTEX
  5
5C0C
  8
0
 10
0.0
 20
0.0
 30
0.0
 70
   128
 71
     6
 72
     7
 73
    -8
  0
VERTEX
  5
5C0D
  8
0
 10
0.0
 20
0.0
 30
0.0
 70
   128
 71
     5
 72
    -6
 73
    -8
  0
VERTEX
  5
5C0E
  8
0
 10
0.0
 20
0.0
 30
0.0
 70
   128
 71
    -1
 72
     4
 73
    -5
  0
VERTEX
  5
5C0F
  8
0
 10
0.0
 20
0.0
 30
0.0
 70
   128
 71
     8
 72
    -1
 73
    -5
  0
VERTEX
  5
5C10
  8
0
 10
0.0
 20
0.0
 30
0.0
 70
   128
 71
     2
 72
     3
 73
    -4
  0
VERTEX
  5
5C11
  8
0
 10
0.0
 20
0.0
 30
0.0
 70
   128
 71
     1
 72
    -2
 73
    -4
  0
SEQEND
  5
5EE4
  8
0
  0
POLYLINE
  5
5C12
  8
0
 66
     1
 10
0.0
 20
0.0
 30
0.0
 70
    64
 71
     4
 72
     2
  0
VERTEX
  5
5C13
  8
0
 10
179.4999999999997
 20
702.0000000000001
 30
51.00000000000027
 70
   192
  0
VERTEX
  5
5C14
  8
0
 10
179.4999999999997
 20
724.0000000000001
 30
51.00000000000027
 70
   192
  0
VERTEX
  5
5C15
  8
0
 10
220.4999999999997
 20
724.0000000000001
 30
51.00000000000026
 70
   192
  0
VERTEX
  5
5C16
  8
0
 10
220.4999999999997
 20
702.0000000000001
 30
51.00000000000026
 70
   192
  0
VERTEX
  5
5C17
  8
0
 10
0.0
 20
0.0
 30
0.0
 70
   128
 71
     3
 72
     4
 73
    -1
  0
VERTEX
  5
5C18
  8
0
 10
0.0
 20
0.0
 30
0.0
 70
   128
 71
     2
 72
    -3
 73
     1
  0
SEQEND
  5
5EE5
  8
0
  0
POLYLINE
  5
5C19
  8
0
 66
     1
 10
0.0
 20
0.0
 30
0.0
 70
    64
 71
     4
 72
     2
  0
VERTEX
  5
5C1A
  8
0
 10
220.4999999999997
 20
702.0000000000001
 30
51.00000000000026
 70
   192
  0
VERTEX
  5
5C1B
  8
0
 10
220.4999999999997
 20
724.0000000000001
 30
51.00000000000026
 70
   192
  0
VERTEX
  5
5C1C
  8
0
 10
220.4999999999998
 20
724.0000000000001
 30
32.00000000000026
 70
   192
  0
VERTEX
  5
5C1D
  8
0
 10
220.4999999999998
 20
702.0000000000001
 30
32.00000000000026
 70
   192
  0
VERTEX
  5
5C1E
  8
0
 10
0.0
 20
0.0
 30
0.0
 70
   128
 71
     3
 72
     4
 73
    -1
  0
VERTEX
  5
5C1F
  8
0
 10
0.0
 20
0.0
 30
0.0
 70
   128
 71
     2
 72
    -3
 73
     1
  0
SEQEND
  5
5EE6
  8
0
  0
POLYLINE
  5
5C20
  8
0
 66
     1
 10
0.0
 20
0.0
 30
0.0
 70
    64
 71
     4
 72
     2
  0
VERTEX
  5
5C21
  8
0
 10
179.4999999999997
 20
702.0000000000001
 30
51.00000000000027
 70
   192
  0
VERTEX
  5
5C22
  8
0
 10
179.4999999999998
 20
702.0000000000001
 30
32.00000000000026
 70
   192
  0
VERTEX
  5
5C23
  8
0
 10
179.4999999999998
 20
724.0000000000001
 30
32.00000000000026
 70
   192
  0
VERTEX
  5
5C24
  8
0
 10
179.4999999999997
 20
724.0000000000001
 30
51.00000000000027
 70
   192
  0
VERTEX
  5
5C25
  8
0
 10
0.0
 20
0.0
 30
0.0
 70
   128
 71
     3
 72
     4
 73
    -1
  0
VERTEX
  5
5C26
  8
0
 10
0.0
 20
0.0
 30
0.0
 70
   128
 71
     2
 72
    -3
 73
     1
  0
SEQEND
  5
5EE7
  8
0
  0
POLYLINE
  5
5C27
  8
0
 66
     1
 10
0.0
 20
0.0
 30
0.0
 70
    64
 71
     4
 72
     2
  0
VERTEX
  5
5C28
  8
0
 10
179.4999999999997
 20
702.0000000000001
 30
51.00000000000026
 70
   192
  0
VERTEX
  5
5C29
  8
0
 10
220.4999999999997
 20
702.0000000000001
 30
51.00000000000026
 70
   192
  0
VERTEX
  5
5C2A
  8
0
 10
220.4999999999998
 20
702.0000000000001
 30
32.00000000000026
 70
   192
  0
VERTEX
  5
5C2B
  8
0
 10
179.4999999999998
 20
702.0000000000001
 30
32.00000000000026
 70
   192
  0
VERTEX
  5
5C2C
  8
0
 10
0.0
 20
0.0
 30
0.0
 70
   128
 71
     3
 72
     4
 73
    -1
  0
VERTEX
  5
5C2D
  8
0
 10
0.0
 20
0.0
 30
0.0
 70
   128
 71
     2
 72
    -3
 73
     1
  0
SEQEND
  5
5EE8
  8
0
  0
POLYLINE
  5
5C2E
  8
0
 66
     1
 10
0.0
 20
0.0
 30
0.0
 70
    64
 71
    10
 72
     8
  0
VERTEX
  5
5C2F
  8
0
 10
231.2499999999998
 20
700.0000000000001
 30
46.00000000000028
 70
   192
  0
VERTEX
  5
5C30
  8
0
 10
231.2499999999998
 20
700.0000000000001
 30
41.00000000000028
 70
   192
  0
VERTEX
  5
5C31
  8
0
 10
231.2499999999998
 20
703.0000000000001
 30
41.00000000000028
 70
   192
  0
VERTEX
  5
5C32
  8
0
 10
231.2499999999998
 20
703.0000000000001
 30
46.00000000000028
 70
   192
  0
VERTEX
  5
5C33
  8
0
 10
233.7499999999998
 20
703.0000000000001
 30
43.50000000000028
 70
   192
  0
VERTEX
  5
5C34
  8
0
 10
233.7499999999998
 20
700.0000000000001
 30
43.50000000000028
 70
   192
  0
VERTEX
  5
5C35
  8
0
 10
233.0177669529661
 20
703.0000000000001
 30
45.26776695296665
 70
   192
  0
VERTEX
  5
5C36
  8
0
 10
233.0177669529662
 20
700.0000000000001
 30
45.26776695296665
 70
   192
  0
VERTEX
  5
5C37
  8
0
 10
233.0177669529662
 20
703.0000000000001
 30
41.73223304703392
 70
   192
  0
VERTEX
  5
5C38
  8
0
 10
233.0177669529661
 20
700.0000000000001
 30
41.73223304703392
 70
   192
  0
VERTEX
  5
5C39
  8
0
 10
0.0
 20
0.0
 30
0.0
 70
   128
 71
     8
 72
     1
 73
    -4
  0
VERTEX
  5
5C3A
  8
0
 10
0.0
 20
0.0
 30
0.0
 70
   128
 71
     7
 72
    -8
 73
     4
  0
VERTEX
  5
5C3B
  8
0
 10
0.0
 20
0.0
 30
0.0
 70
   128
 71
     6
 72
     8
 73
    -7
  0
VERTEX
  5
5C3C
  8
0
 10
0.0
 20
0.0
 30
0.0
 70
   128
 71
     5
 72
    -6
 73
     7
  0
VERTEX
  5
5C3D
  8
0
 10
0.0
 20
0.0
 30
0.0
 70
   128
 71
    10
 72
     6
 73
    -5
  0
VERTEX
  5
5C3E
  8
0
 10
0.0
 20
0.0
 30
0.0
 70
   128
 71
     9
 72
   -10
 73
     5
  0
VERTEX
  5
5C3F
  8
0
 10
0.0
 20
0.0
 30
0.0
 70
   128
 71
     3
 72
     2
 73
   -10
  0
VERTEX
  5
5C40
  8
0
 10
0.0
 20
0.0
 30
0.0
 70
   128
 71
     9
 72
    -3
 73
    10
  0
SEQEND
  5
5EE9
  8
0
  0
POLYLINE
  5
5C41
  8
0
 66
     1
 10
0.0
 20
0.0
 30
0.0
 70
    64
 71
    10
 72
     8
  0
VERTEX
  5
5C42
  8
0
 10
168.7499999999998
 20
700.0000000000001
 30
46.00000000000026
 70
   192
  0
VERTEX
  5
5C43
  8
0
 10
168.7499999999998
 20
700.0000000000001
 30
41.00000000000026
 70
   192
  0
VERTEX
  5
5C44
  8
0
 10
168.7499999999998
 20
703.0000000000001
 30
41.00000000000026
 70
   192
  0
VERTEX
  5
5C45
  8
0
 10
168.7499999999998
 20
703.0000000000001
 30
46.00000000000026
 70
   192
  0
VERTEX
  5
5C46
  8
0
 10
171.2499999999998
 20
703.0000000000001
 30
43.50000000000026
 70
   192
  0
VERTEX
  5
5C47
  8
0
 10
171.2499999999998
 20
700.0000000000001
 30
43.50000000000026
 70
   192
  0
VERTEX
  5
5C48
  8
0
 10
170.5177669529661
 20
703.0000000000001
 30
45.26776695296663
 70
   192
  0
VERTEX
  5
5C49
  8
0
 10
170.5177669529661
 20
700.0000000000001
 30
45.26776695296663
 70
   192
  0
VERTEX
  5
5C4A
  8
0
 10
170.5177669529661
 20
703.0000000000001
 30
41.73223304703389
 70
   192
  0
VERTEX
  5
5C4B
  8
0
 10
170.5177669529661
 20
700.0000000000001
 30
41.73223304703389
 70
   192
  0
VERTEX
  5
5C4C
  8
0
 10
0.0
 20
0.0
 30
0.0
 70
   128
 71
     8
 72
     1
 73
    -4
  0
VERTEX
  5
5C4D
  8
0
 10
0.0
 20
0.0
 30
0.0
 70
   128
 71
     7
 72
    -8
 73
     4
  0
VERTEX
  5
5C4E
  8
0
 10
0.0
 20
0.0
 30
0.0
 70
   128
 71
     6
 72
     8
 73
    -7
  0
VERTEX
  5
5C4F
  8
0
 10
0.0
 20
0.0
 30
0.0
 70
   128
 71
     5
 72
    -6
 73
     7
  0
VERTEX
  5
5C50
  8
0
 10
0.0
 20
0.0
 30
0.0
 70
   128
 71
    10
 72
     6
 73
    -5
  0
VERTEX
  5
5C51
  8
0
 10
0.0
 20
0.0
 30
0.0
 70
   128
 71
     9
 72
   -10
 73
     5
  0
VERTEX
  5
5C52
  8
0
 10
0.0
 20
0.0
 30
0.0
 70
   128
 71
     3
 72
     2
 73
   -10
  0
VERTEX
  5
5C53
  8
0
 10
0.0
 20
0.0
 30
0.0
 70
   128
 71
     9
 72
    -3
 73
    10
  0
SEQEND
  5
5EEA
  8
0
  0
ENDBLK
  5
5ED6
  8
0
  0
BLOCK
  8
0
  2
*X34
 70
     1
 10
0.0
 20
0.0
 30
0.0
  3
*X34
  1

  0
POLYLINE
  5
5C55
  8
0
 66
     1
 10
0.0
 20
0.0
 30
0.0
 70
    64
 71
     4
 72
     2
  0
VERTEX
  5
5C56
  8
0
 10
219.9999999999999
 20
726.0000000000001
 30
32.00000000000021
 70
   192
  0
VERTEX
  5
5C57
  8
0
 10
219.9999999999999
 20
731.0000000000001
 30
32.00000000000021
 70
   192
  0
VERTEX
  5
5C58
  8
0
 10
179.9999999999999
 20
731.0000000000001
 30
32.00000000000021
 70
   192
  0
VERTEX
  5
5C59
  8
0
 10
179.9999999999998
 20
726.0000000000001
 30
32.00000000000021
 70
   192
  0
VERTEX
  5
5C5A
  8
0
 10
0.0
 20
0.0
 30
0.0
 70
   128
 71
     1
 72
     4
 73
    -3
  0
VERTEX
  5
5C5B
  8
0
 10
0.0
 20
0.0
 30
0.0
 70
   128
 71
    -1
 72
     3
 73
     2
  0
SEQEND
  5
5EED
  8
0
  0
POLYLINE
  5
5C5C
  8
0
 66
     1
 10
0.0
 20
0.0
 30
0.0
 70
    64
 71
     4
 72
     2
  0
VERTEX
  5
5C5D
  8
0
 10
-180.0000000000002
 20
726.0000000000001
 30
32.00000000000021
 70
   192
  0
VERTEX
  5
5C5E
  8
0
 10
-180.0000000000002
 20
731.0000000000001
 30
32.00000000000021
 70
   192
  0
VERTEX
  5
5C5F
  8
0
 10
-220.0000000000001
 20
731.0000000000001
 30
32.00000000000021
 70
   192
  0
VERTEX
  5
5C60
  8
0
 10
-220.0000000000001
 20
726.0000000000001
 30
32.00000000000021
 70
   192
  0
VERTEX
  5
5C61
  8
0
 10
0.0
 20
0.0
 30
0.0
 70
   128
 71
     1
 72
     4
 73
    -3
  0
VERTEX
  5
5C62
  8
0
 10
0.0
 20
0.0
 30
0.0
 70
   128
 71
    -1
 72
     3
 73
     2
  0
SEQEND
  5
5EEE
  8
0
  0
POLYLINE
  5
5C63
  8
0
 66
     1
 10
0.0
 20
0.0
 30
0.0
 70
    64
 71
    12
 72
    10
  0
VERTEX
  5
5C64
  8
0
 10
219.9999999999999
 20
731.0000000000001
 30
112.0000000000002
 70
   192
  0
VERTEX
  5
5C65
  8
0
 10
219.9999999999999
 20
724.0000000000001
 30
112.0000000000002
 70
   192
  0
VERTEX
  5
5C66
  8
0
 10
399.9999999999999
 20
724.0000000000001
 30
112.0000000000002
 70
   192
  0
VERTEX
  5
5C67
  8
0
 10
399.9999999999999
 20
738.0000000000001
 30
112.0000000000002
 70
   192
  0
VERTEX
  5
5C68
  8
0
 10
-400.0000000000001
 20
738.0000000000001
 30
112.0000000000002
 70
   192
  0
VERTEX
  5
5C69
  8
0
 10
-400.0000000000001
 20
724.0
 30
112.0000000000002
 70
   192
  0
VERTEX
  5
5C6A
  8
0
 10
-220.0000000000001
 20
724.0000000000001
 30
112.0000000000002
 70
   192
  0
VERTEX
  5
5C6B
  8
0
 10
-220.0000000000001
 20
731.0000000000001
 30
112.0000000000002
 70
   192
  0
VERTEX
  5
5C6C
  8
0
 10
-180.0000000000002
 20
731.0000000000001
 30
112.0000000000002
 70
   192
  0
VERTEX
  5
5C6D
  8
0
 10
-180.0000000000002
 20
724.0
 30
112.0000000000002
 70
   192
  0
VERTEX
  5
5C6E
  8
0
 10
179.9999999999999
 20
724.0000000000001
 30
112.0000000000002
 70
   192
  0
VERTEX
  5
5C6F
  8
0
 10
179.9999999999999
 20
731.0000000000001
 30
112.0000000000002
 70
   192
  0
VERTEX
  5
5C70
  8
0
 10
0.0
 20
0.0
 30
0.0
 70
   128
 71
     8
 72
     7
 73
    -6
  0
VERTEX
  5
5C71
  8
0
 10
0.0
 20
0.0
 30
0.0
 70
   128
 71
    -8
 72
     6
 73
    -5
  0
VERTEX
  5
5C72
  8
0
 10
0.0
 20
0.0
 30
0.0
 70
   128
 71
    -5
 72
     9
 73
    -8
  0
VERTEX
  5
5C73
  8
0
 10
0.0
 20
0.0
 30
0.0
 70
   128
 71
    -9
 72
    -5
 73
   -12
  0
VERTEX
  5
5C74
  8
0
 10
0.0
 20
0.0
 30
0.0
 70
   128
 71
    12
 72
    11
 73
   -10
  0
VERTEX
  5
5C75
  8
0
 10
0.0
 20
0.0
 30
0.0
 70
   128
 71
   -12
 72
    10
 73
    -9
  0
VERTEX
  5
5C76
  8
0
 10
0.0
 20
0.0
 30
0.0
 70
   128
 71
    -5
 72
     1
 73
   -12
  0
VERTEX
  5
5C77
  8
0
 10
0.0
 20
0.0
 30
0.0
 70
   128
 71
     5
 72
    -4
 73
    -1
  0
VERTEX
  5
5C78
  8
0
 10
0.0
 20
0.0
 30
0.0
 70
   128
 71
     4
 72
     3
 73
    -2
  0
VERTEX
  5
5C79
  8
0
 10
0.0
 20
0.0
 30
0.0
 70
   128
 71
    -4
 72
     2
 73
    -1
  0
SEQEND
  5
5EEF
  8
0
  0
POLYLINE
  5
5C7A
  8
0
 66
     1
 10
0.0
 20
0.0
 30
0.0
 70
    64
 71
     4
 72
     2
  0
VERTEX
  5
5C7B
  8
0
 10
-400.0000000000001
 20
724.0000000000001
 30
137.0000000000002
 70
   192
  0
VERTEX
  5
5C7C
  8
0
 10
-400.0000000000001
 20
738.0000000000001
 30
137.0000000000002
 70
   192
  0
VERTEX
  5
5C7D
  8
0
 10
-400.0000000000001
 20
738.0000000000001
 30
112.0000000000002
 70
   192
  0
VERTEX
  5
5C7E
  8
0
 10
-400.0000000000001
 20
724.0000000000001
 30
112.0000000000002
 70
   192
  0
VERTEX
  5
5C7F
  8
0
 10
0.0
 20
0.0
 30
0.0
 70
   128
 71
     3
 72
     4
 73
    -1
  0
VERTEX
  5
5C80
  8
0
 10
0.0
 20
0.0
 30
0.0
 70
   128
 71
     2
 72
    -3
 73
     1
  0
SEQEND
  5
5EF0
  8
0
  0
POLYLINE
  5
5C81
  8
0
 66
     1
 10
0.0
 20
0.0
 30
0.0
 70
    64
 71
     4
 72
     2
  0
VERTEX
  5
5C82
  8
0
 10
-400.0000000000001
 20
738.0
 30
137.0000000000002
 70
   192
  0
VERTEX
  5
5C83
  8
0
 10
399.9999999999999
 20
738.0000000000001
 30
137.0000000000002
 70
   192
  0
VERTEX
  5
5C84
  8
0
 10
399.9999999999999
 20
738.0000000000001
 30
112.0000000000002
 70
   192
  0
VERTEX
  5
5C85
  8
0
 10
-400.0000000000001
 20
738.0
 30
112.0000000000002
 70
   192
  0
VERTEX
  5
5C86
  8
0
 10
0.0
 20
0.0
 30
0.0
 70
   128
 71
     3
 72
     4
 73
    -1
  0
VERTEX
  5
5C87
  8
0
 10
0.0
 20
0.0
 30
0.0
 70
   128
 71
     2
 72
    -3
 73
     1
  0
SEQEND
  5
5EF1
  8
0
  0
POLYLINE
  5
5C88
  8
0
 66
     1
 10
0.0
 20
0.0
 30
0.0
 70
    64
 71
     4
 72
     2
  0
VERTEX
  5
5C89
  8
0
 10
399.9999999999999
 20
738.0000000000001
 30
137.0000000000002
 70
   192
  0
VERTEX
  5
5C8A
  8
0
 10
399.9999999999999
 20
724.0000000000001
 30
137.0000000000002
 70
   192
  0
VERTEX
  5
5C8B
  8
0
 10
399.9999999999999
 20
724.0000000000001
 30
112.0000000000002
 70
   192
  0
VERTEX
  5
5C8C
  8
0
 10
399.9999999999999
 20
738.0000000000001
 30
112.0000000000002
 70
   192
  0
VERTEX
  5
5C8D
  8
0
 10
0.0
 20
0.0
 30
0.0
 70
   128
 71
     3
 72
     4
 73
    -1
  0
VERTEX
  5
5C8E
  8
0
 10
0.0
 20
0.0
 30
0.0
 70
   128
 71
     2
 72
    -3
 73
     1
  0
SEQEND
  5
5EF2
  8
0
  0
POLYLINE
  5
5C8F
  8
0
 66
     1
 10
0.0
 20
0.0
 30
0.0
 70
    64
 71
    12
 72
    10
  0
VERTEX
  5
5C90
  8
0
 10
399.9999999999999
 20
724.0000000000001
 30
137.0000000000002
 70
   192
  0
VERTEX
  5
5C91
  8
0
 10
-400.0000000000001
 20
724.0
 30
137.0000000000002
 70
   192
  0
VERTEX
  5
5C92
  8
0
 10
-400.0000000000001
 20
724.0000000000001
 30
112.0000000000002
 70
   192
  0
VERTEX
  5
5C93
  8
0
 10
-220.0000000000002
 20
724.0
 30
112.0000000000002
 70
   192
  0
VERTEX
  5
5C94
  8
0
 10
-220.0000000000001
 20
724.0000000000001
 30
32.00000000000021
 70
   192
  0
VERTEX
  5
5C95
  8
0
 10
-180.0000000000002
 20
724.0000000000001
 30
32.00000000000021
 70
   192
  0
VERTEX
  5
5C96
  8
0
 10
-180.0000000000002
 20
724.0000000000001
 30
112.0000000000002
 70
   192
  0
VERTEX
  5
5C97
  8
0
 10
179.9999999999999
 20
724.0000000000001
 30
112.0000000000002
 70
   192
  0
VERTEX
  5
5C98
  8
0
 10
179.9999999999999
 20
724.0000000000001
 30
32.00000000000021
 70
   192
  0
VERTEX
  5
5C99
  8
0
 10
219.9999999999998
 20
724.0000000000001
 30
32.00000000000021
 70
   192
  0
VERTEX
  5
5C9A
  8
0
 10
219.9999999999999
 20
724.0000000000001
 30
112.0000000000002
 70
   192
  0
VERTEX
  5
5C9B
  8
0
 10
399.9999999999999
 20
724.0000000000001
 30
112.0000000000002
 70
   192
  0
VERTEX
  5
5C9C
  8
0
 10
0.0
 20
0.0
 30
0.0
 70
   128
 71
     2
 72
     3
 73
    -4
  0
VERTEX
  5
5C9D
  8
0
 10
0.0
 20
0.0
 30
0.0
 70
   128
 71
    -4
 72
    -7
 73
    -2
  0
VERTEX
  5
5C9E
  8
0
 10
0.0
 20
0.0
 30
0.0
 70
   128
 71
     5
 72
     6
 73
    -7
  0
VERTEX
  5
5C9F
  8
0
 10
0.0
 20
0.0
 30
0.0
 70
   128
 71
     4
 72
    -5
 73
    -7
  0
VERTEX
  5
5CA0
  8
0
 10
0.0
 20
0.0
 30
0.0
 70
   128
 71
     7
 72
    -8
 73
    -2
  0
VERTEX
  5
5CA1
  8
0
 10
0.0
 20
0.0
 30
0.0
 70
   128
 71
    -8
 72
   -11
 73
    -2
  0
VERTEX
  5
5CA2
  8
0
 10
0.0
 20
0.0
 30
0.0
 70
   128
 71
     9
 72
    10
 73
   -11
  0
VERTEX
  5
5CA3
  8
0
 10
0.0
 20
0.0
 30
0.0
 70
   128
 71
     8
 72
    -9
 73
   -11
  0
VERTEX
  5
5CA4
  8
0
 10
0.0
 20
0.0
 30
0.0
 70
   128
 71
   -11
 72
     1
 73
    -2
  0
VERTEX
  5
5CA5
  8
0
 10
0.0
 20
0.0
 30
0.0
 70
   128
 71
    11
 72
    12
 73
    -1
  0
SEQEND
  5
5EF3
  8
0
  0
POLYLINE
  5
5CA6
  8
0
 66
     1
 10
0.0
 20
0.0
 30
0.0
 70
    64
 71
     4
 72
     2
  0
VERTEX
  5
5CA7
  8
0
 10
-400.0000000000001
 20
738.0000000000001
 30
137.0000000000002
 70
   192
  0
VERTEX
  5
5CA8
  8
0
 10
-400.0000000000001
 20
724.0000000000001
 30
137.0000000000002
 70
   192
  0
VERTEX
  5
5CA9
  8
0
 10
399.9999999999999
 20
724.0000000000001
 30
137.0000000000002
 70
   192
  0
VERTEX
  5
5CAA
  8
0
 10
399.9999999999999
 20
738.0000000000001
 30
137.0000000000002
 70
   192
  0
VERTEX
  5
5CAB
  8
0
 10
0.0
 20
0.0
 30
0.0
 70
   128
 71
     3
 72
     4
 73
    -1
  0
VERTEX
  5
5CAC
  8
0
 10
0.0
 20
0.0
 30
0.0
 70
   128
 71
     2
 72
    -3
 73
     1
  0
SEQEND
  5
5EF4
  8
0
  0
POLYLINE
  5
5CAD
  8
0
 66
     1
 10
0.0
 20
0.0
 30
0.0
 70
    64
 71
     8
 72
     6
  0
VERTEX
  5
5CAE
  8
0
 10
-180.0000000000002
 20
731.0000000000001
 30
112.0000000000002
 70
   192
  0
VERTEX
  5
5CAF
  8
0
 10
-180.0000000000002
 20
731.0000000000001
 30
32.00000000000021
 70
   192
  0
VERTEX
  5
5CB0
  8
0
 10
-180.0000000000002
 20
726.0000000000001
 30
32.00000000000021
 70
   192
  0
VERTEX
  5
5CB1
  8
0
 10
-180.0000000000002
 20
726.0000000000001
 30
30.00000000000021
 70
   192
  0
VERTEX
  5
5CB2
  8
0
 10
-180.0000000000002
 20
709.0000000000001
 30
30.00000000000021
 70
   192
  0
VERTEX
  5
5CB3
  8
0
 10
-180.0000000000002
 20
709.0000000000001
 30
32.00000000000021
 70
   192
  0
VERTEX
  5
5CB4
  8
0
 10
-180.0000000000002
 20
724.0000000000001
 30
32.00000000000021
 70
   192
  0
VERTEX
  5
5CB5
  8
0
 10
-180.0000000000002
 20
724.0000000000001
 30
112.0000000000002
 70
   192
  0
VERTEX
  5
5CB6
  8
0
 10
0.0
 20
0.0
 30
0.0
 70
   128
 71
     7
 72
     6
 73
    -5
  0
VERTEX
  5
5CB7
  8
0
 10
0.0
 20
0.0
 30
0.0
 70
   128
 71
    -7
 72
     5
 73
    -4
  0
VERTEX
  5
5CB8
  8
0
 10
0.0
 20
0.0
 30
0.0
 70
   128
 71
     3
 72
     2
 73
    -1
  0
VERTEX
  5
5CB9
  8
0
 10
0.0
 20
0.0
 30
0.0
 70
   128
 71
    -3
 72
     1
 73
    -8
  0
VERTEX
  5
5CBA
  8
0
 10
0.0
 20
0.0
 30
0.0
 70
   128
 71
     8
 72
    -7
 73
    -3
  0
VERTEX
  5
5CBB
  8
0
 10
0.0
 20
0.0
 30
0.0
 70
   128
 71
    -7
 72
     4
 73
    -3
  0
SEQEND
  5
5EF5
  8
0
  0
POLYLINE
  5
5CBC
  8
0
 66
     1
 10
0.0
 20
0.0
 30
0.0
 70
    64
 71
     8
 72
     6
  0
VERTEX
  5
5CBD
  8
0
 10
-220.0000000000001
 20
724.0000000000001
 30
112.0000000000002
 70
   192
  0
VERTEX
  5
5CBE
  8
0
 10
-220.0000000000001
 20
724.0000000000001
 30
32.00000000000021
 70
   192
  0
VERTEX
  5
5CBF
  8
0
 10
-220.0000000000001
 20
709.0000000000001
 30
32.00000000000021
 70
   192
  0
VERTEX
  5
5CC0
  8
0
 10
-220.0000000000001
 20
709.0000000000001
 30
30.00000000000021
 70
   192
  0
VERTEX
  5
5CC1
  8
0
 10
-220.0000000000001
 20
726.0000000000001
 30
30.00000000000021
 70
   192
  0
VERTEX
  5
5CC2
  8
0
 10
-220.0000000000001
 20
726.0000000000001
 30
32.00000000000021
 70
   192
  0
VERTEX
  5
5CC3
  8
0
 10
-220.0000000000001
 20
731.0000000000001
 30
32.00000000000021
 70
   192
  0
VERTEX
  5
5CC4
  8
0
 10
-220.0000000000001
 20
731.0000000000001
 30
112.0000000000002
 70
   192
  0
VERTEX
  5
5CC5
  8
0
 10
0.0
 20
0.0
 30
0.0
 70
   128
 71
    -2
 72
     6
 73
    -5
  0
VERTEX
  5
5CC6
  8
0
 10
0.0
 20
0.0
 30
0.0
 70
   128
 71
     5
 72
     4
 73
    -3
  0
VERTEX
  5
5CC7
  8
0
 10
0.0
 20
0.0
 30
0.0
 70
   128
 71
    -5
 72
     3
 73
    -2
  0
VERTEX
  5
5CC8
  8
0
 10
0.0
 20
0.0
 30
0.0
 70
   128
 71
    -6
 72
     2
 73
    -1
  0
VERTEX
  5
5CC9
  8
0
 10
0.0
 20
0.0
 30
0.0
 70
   128
 71
     1
 72
     8
 73
    -7
  0
VERTEX
  5
5CCA
  8
0
 10
0.0
 20
0.0
 30
0.0
 70
   128
 71
    -1
 72
     7
 73
    -6
  0
SEQEND
  5
5EF6
  8
0
  0
POLYLINE
  5
5CCB
  8
0
 66
     1
 10
0.0
 20
0.0
 30
0.0
 70
    64
 71
     4
 72
     2
  0
VERTEX
  5
5CCC
  8
0
 10
-220.0000000000001
 20
731.0000000000001
 30
112.0000000000002
 70
   192
  0
VERTEX
  5
5CCD
  8
0
 10
-220.0000000000001
 20
731.0000000000001
 30
32.00000000000021
 70
   192
  0
VERTEX
  5
5CCE
  8
0
 10
-180.0000000000002
 20
731.0000000000001
 30
32.00000000000021
 70
   192
  0
VERTEX
  5
5CCF
  8
0
 10
-180.0000000000002
 20
731.0000000000001
 30
112.0000000000002
 70
   192
  0
VERTEX
  5
5CD0
  8
0
 10
0.0
 20
0.0
 30
0.0
 70
   128
 71
     1
 72
     4
 73
    -3
  0
VERTEX
  5
5CD1
  8
0
 10
0.0
 20
0.0
 30
0.0
 70
   128
 71
    -1
 72
     3
 73
     2
  0
SEQEND
  5
5EF7
  8
0
  0
POLYLINE
  5
5CD2
  8
0
 66
     1
 10
0.0
 20
0.0
 30
0.0
 70
    64
 71
     4
 72
     2
  0
VERTEX
  5
5CD3
  8
0
 10
-180.0000000000002
 20
709.0000000000001
 30
32.00000000000021
 70
   192
  0
VERTEX
  5
5CD4
  8
0
 10
-180.0000000000002
 20
724.0000000000001
 30
32.00000000000021
 70
   192
  0
VERTEX
  5
5CD5
  8
0
 10
-220.0000000000001
 20
724.0000000000001
 30
32.00000000000021
 70
   192
  0
VERTEX
  5
5CD6
  8
0
 10
-220.0000000000001
 20
709.0000000000001
 30
32.00000000000021
 70
   192
  0
VERTEX
  5
5CD7
  8
0
 10
0.0
 20
0.0
 30
0.0
 70
   128
 71
     3
 72
     4
 73
    -1
  0
VERTEX
  5
5CD8
  8
0
 10
0.0
 20
0.0
 30
0.0
 70
   128
 71
     2
 72
    -3
 73
     1
  0
SEQEND
  5
5EF8
  8
0
  0
POLYLINE
  5
5CD9
  8
0
 66
     1
 10
0.0
 20
0.0
 30
0.0
 70
    64
 71
     4
 72
     2
  0
VERTEX
  5
5CDA
  8
0
 10
-220.0000000000001
 20
726.0000000000001
 30
30.00000000000021
 70
   192
  0
VERTEX
  5
5CDB
  8
0
 10
-220.0000000000001
 20
726.0000000000001
 30
32.00000000000021
 70
   192
  0
VERTEX
  5
5CDC
  8
0
 10
-180.0000000000002
 20
726.0000000000001
 30
32.00000000000021
 70
   192
  0
VERTEX
  5
5CDD
  8
0
 10
-180.0000000000002
 20
726.0000000000001
 30
30.00000000000021
 70
   192
  0
VERTEX
  5
5CDE
  8
0
 10
0.0
 20
0.0
 30
0.0
 70
   128
 71
     3
 72
     4
 73
    -1
  0
VERTEX
  5
5CDF
  8
0
 10
0.0
 20
0.0
 30
0.0
 70
   128
 71
     2
 72
    -3
 73
     1
  0
SEQEND
  5
5EF9
  8
0
  0
POLYLINE
  5
5CE0
  8
0
 66
     1
 10
0.0
 20
0.0
 30
0.0
 70
    64
 71
     4
 72
     2
  0
VERTEX
  5
5CE1
  8
0
 10
-220.0000000000001
 20
709.0000000000001
 30
30.00000000000021
 70
   192
  0
VERTEX
  5
5CE2
  8
0
 10
-220.0000000000001
 20
726.0000000000001
 30
30.00000000000021
 70
   192
  0
VERTEX
  5
5CE3
  8
0
 10
-180.0000000000002
 20
726.0000000000001
 30
30.00000000000021
 70
   192
  0
VERTEX
  5
5CE4
  8
0
 10
-180.0000000000002
 20
709.0000000000001
 30
30.00000000000021
 70
   192
  0
VERTEX
  5
5CE5
  8
0
 10
0.0
 20
0.0
 30
0.0
 70
   128
 71
     3
 72
     4
 73
    -1
  0
VERTEX
  5
5CE6
  8
0
 10
0.0
 20
0.0
 30
0.0
 70
   128
 71
     2
 72
    -3
 73
     1
  0
SEQEND
  5
5EFA
  8
0
  0
POLYLINE
  5
5CE7
  8
0
 66
     1
 10
0.0
 20
0.0
 30
0.0
 70
    64
 71
     4
 72
     2
  0
VERTEX
  5
5CE8
  8
0
 10
-220.0000000000001
 20
709.0000000000001
 30
32.00000000000021
 70
   192
  0
VERTEX
  5
5CE9
  8
0
 10
-220.0000000000001
 20
709.0000000000001
 30
30.00000000000021
 70
   192
  0
VERTEX
  5
5CEA
  8
0
 10
-180.0000000000002
 20
709.0000000000001
 30
30.00000000000021
 70
   192
  0
VERTEX
  5
5CEB
  8
0
 10
-180.0000000000002
 20
709.0000000000001
 30
32.00000000000021
 70
   192
  0
VERTEX
  5
5CEC
  8
0
 10
0.0
 20
0.0
 30
0.0
 70
   128
 71
     3
 72
     4
 73
    -1
  0
VERTEX
  5
5CED
  8
0
 10
0.0
 20
0.0
 30
0.0
 70
   128
 71
     2
 72
    -3
 73
     1
  0
SEQEND
  5
5EFB
  8
0
  0
POLYLINE
  5
5CEE
  8
0
 66
     1
 10
0.0
 20
0.0
 30
0.0
 70
    64
 71
     8
 72
     6
  0
VERTEX
  5
5CEF
  8
0
 10
179.9999999999999
 20
724.0000000000001
 30
112.0000000000002
 70
   192
  0
VERTEX
  5
5CF0
  8
0
 10
179.9999999999999
 20
731.0000000000001
 30
112.0000000000002
 70
   192
  0
VERTEX
  5
5CF1
  8
0
 10
179.9999999999999
 20
731.0000000000001
 30
32.00000000000021
 70
   192
  0
VERTEX
  5
5CF2
  8
0
 10
179.9999999999999
 20
726.0000000000001
 30
32.00000000000021
 70
   192
  0
VERTEX
  5
5CF3
  8
0
 10
179.9999999999999
 20
726.0000000000001
 30
30.00000000000021
 70
   192
  0
VERTEX
  5
5CF4
  8
0
 10
179.9999999999999
 20
709.0000000000001
 30
30.00000000000021
 70
   192
  0
VERTEX
  5
5CF5
  8
0
 10
179.9999999999999
 20
709.0000000000001
 30
32.00000000000021
 70
   192
  0
VERTEX
  5
5CF6
  8
0
 10
179.9999999999999
 20
724.0000000000001
 30
32.00000000000021
 70
   192
  0
VERTEX
  5
5CF7
  8
0
 10
0.0
 20
0.0
 30
0.0
 70
   128
 71
     6
 72
     7
 73
    -8
  0
VERTEX
  5
5CF8
  8
0
 10
0.0
 20
0.0
 30
0.0
 70
   128
 71
     5
 72
    -6
 73
    -8
  0
VERTEX
  5
5CF9
  8
0
 10
0.0
 20
0.0
 30
0.0
 70
   128
 71
     2
 72
     3
 73
    -4
  0
VERTEX
  5
5CFA
  8
0
 10
0.0
 20
0.0
 30
0.0
 70
   128
 71
     1
 72
    -2
 73
    -4
  0
VERTEX
  5
5CFB
  8
0
 10
0.0
 20
0.0
 30
0.0
 70
   128
 71
    -4
 72
     8
 73
    -1
  0
VERTEX
  5
5CFC
  8
0
 10
0.0
 20
0.0
 30
0.0
 70
   128
 71
     4
 72
    -5
 73
    -8
  0
SEQEND
  5
5EFC
  8
0
  0
POLYLINE
  5
5CFD
  8
0
 66
     1
 10
0.0
 20
0.0
 30
0.0
 70
    64
 71
     4
 72
     2
  0
VERTEX
  5
5CFE
  8
0
 10
179.9999999999999
 20
731.0000000000001
 30
112.0000000000002
 70
   192
  0
VERTEX
  5
5CFF
  8
0
 10
219.9999999999999
 20
731.0000000000001
 30
112.0000000000002
 70
   192
  0
VERTEX
  5
5D00
  8
0
 10
219.9999999999999
 20
731.0000000000001
 30
32.00000000000021
 70
   192
  0
VERTEX
  5
5D01
  8
0
 10
179.9999999999999
 20
731.0000000000001
 30
32.00000000000021
 70
   192
  0
VERTEX
  5
5D02
  8
0
 10
0.0
 20
0.0
 30
0.0
 70
   128
 71
     3
 72
     4
 73
    -1
  0
VERTEX
  5
5D03
  8
0
 10
0.0
 20
0.0
 30
0.0
 70
   128
 71
     2
 72
    -3
 73
     1
  0
SEQEND
  5
5EFD
  8
0
  0
POLYLINE
  5
5D04
  8
0
 66
     1
 10
0.0
 20
0.0
 30
0.0
 70
    64
 71
     8
 72
     6
  0
VERTEX
  5
5D05
  8
0
 10
219.9999999999999
 20
731.0000000000001
 30
112.0000000000002
 70
   192
  0
VERTEX
  5
5D06
  8
0
 10
219.9999999999999
 20
724.0000000000001
 30
112.0000000000002
 70
   192
  0
VERTEX
  5
5D07
  8
0
 10
219.9999999999999
 20
724.0000000000001
 30
32.00000000000021
 70
   192
  0
VERTEX
  5
5D08
  8
0
 10
219.9999999999998
 20
709.0000000000001
 30
32.00000000000021
 70
   192
  0
VERTEX
  5
5D09
  8
0
 10
219.9999999999998
 20
709.0000000000001
 30
30.00000000000021
 70
   192
  0
VERTEX
  5
5D0A
  8
0
 10
219.9999999999998
 20
726.0000000000001
 30
30.00000000000021
 70
   192
  0
VERTEX
  5
5D0B
  8
0
 10
219.9999999999998
 20
726.0000000000001
 30
32.00000000000021
 70
   192
  0
VERTEX
  5
5D0C
  8
0
 10
219.9999999999999
 20
731.0000000000001
 30
32.00000000000021
 70
   192
  0
VERTEX
  5
5D0D
  8
0
 10
0.0
 20
0.0
 30
0.0
 70
   128
 71
     6
 72
    -7
 73
    -3
  0
VERTEX
  5
5D0E
  8
0
 10
0.0
 20
0.0
 30
0.0
 70
   128
 71
     4
 72
     5
 73
    -6
  0
VERTEX
  5
5D0F
  8
0
 10
0.0
 20
0.0
 30
0.0
 70
   128
 71
     3
 72
    -4
 73
    -6
  0
VERTEX
  5
5D10
  8
0
 10
0.0
 20
0.0
 30
0.0
 70
   128
 71
     2
 72
    -3
 73
    -7
  0
VERTEX
  5
5D11
  8
0
 10
0.0
 20
0.0
 30
0.0
 70
   128
 71
     8
 72
     1
 73
    -2
  0
VERTEX
  5
5D12
  8
0
 10
0.0
 20
0.0
 30
0.0
 70
   128
 71
     7
 72
    -8
 73
    -2
  0
SEQEND
  5
5EFE
  8
0
  0
POLYLINE
  5
5D13
  8
0
 66
     1
 10
0.0
 20
0.0
 30
0.0
 70
    64
 71
     4
 72
     2
  0
VERTEX
  5
5D14
  8
0
 10
179.9999999999999
 20
726.0000000000001
 30
32.00000000000021
 70
   192
  0
VERTEX
  5
5D15
  8
0
 10
179.9999999999998
 20
726.0000000000001
 30
30.00000000000021
 70
   192
  0
VERTEX
  5
5D16
  8
0
 10
219.9999999999998
 20
726.0000000000001
 30
30.00000000000021
 70
   192
  0
VERTEX
  5
5D17
  8
0
 10
219.9999999999999
 20
726.0000000000001
 30
32.00000000000021
 70
   192
  0
VERTEX
  5
5D18
  8
0
 10
0.0
 20
0.0
 30
0.0
 70
   128
 71
     1
 72
     4
 73
    -3
  0
VERTEX
  5
5D19
  8
0
 10
0.0
 20
0.0
 30
0.0
 70
   128
 71
    -1
 72
     3
 73
     2
  0
SEQEND
  5
5EFF
  8
0
  0
POLYLINE
  5
5D1A
  8
0
 66
     1
 10
0.0
 20
0.0
 30
0.0
 70
    64
 71
     4
 72
     2
  0
VERTEX
  5
5D1B
  8
0
 10
179.9999999999999
 20
726.0000000000001
 30
30.00000000000021
 70
   192
  0
VERTEX
  5
5D1C
  8
0
 10
179.9999999999998
 20
709.0000000000001
 30
30.00000000000021
 70
   192
  0
VERTEX
  5
5D1D
  8
0
 10
219.9999999999998
 20
709.0000000000001
 30
30.00000000000021
 70
   192
  0
VERTEX
  5
5D1E
  8
0
 10
219.9999999999998
 20
726.0000000000001
 30
30.00000000000021
 70
   192
  0
VERTEX
  5
5D1F
  8
0
 10
0.0
 20
0.0
 30
0.0
 70
   128
 71
     1
 72
     4
 73
    -3
  0
VERTEX
  5
5D20
  8
0
 10
0.0
 20
0.0
 30
0.0
 70
   128
 71
    -1
 72
     3
 73
     2
  0
SEQEND
  5
5F00
  8
0
  0
POLYLINE
  5
5D21
  8
0
 66
     1
 10
0.0
 20
0.0
 30
0.0
 70
    64
 71
     4
 72
     2
  0
VERTEX
  5
5D22
  8
0
 10
179.9999999999999
 20
709.0000000000001
 30
30.00000000000021
 70
   192
  0
VERTEX
  5
5D23
  8
0
 10
179.9999999999998
 20
709.0000000000001
 30
32.00000000000021
 70
   192
  0
VERTEX
  5
5D24
  8
0
 10
219.9999999999998
 20
709.0000000000001
 30
32.00000000000021
 70
   192
  0
VERTEX
  5
5D25
  8
0
 10
219.9999999999998
 20
709.0000000000001
 30
30.00000000000021
 70
   192
  0
VERTEX
  5
5D26
  8
0
 10
0.0
 20
0.0
 30
0.0
 70
   128
 71
     1
 72
     4
 73
    -3
  0
VERTEX
  5
5D27
  8
0
 10
0.0
 20
0.0
 30
0.0
 70
   128
 71
    -1
 72
     3
 73
     2
  0
SEQEND
  5
5F01
  8
0
  0
POLYLINE
  5
5D28
  8
0
 66
     1
 10
0.0
 20
0.0
 30
0.0
 70
    64
 71
     4
 72
     2
  0
VERTEX
  5
5D29
  8
0
 10
219.9999999999998
 20
724.0000000000001
 30
32.00000000000021
 70
   192
  0
VERTEX
  5
5D2A
  8
0
 10
219.9999999999998
 20
709.0000000000001
 30
32.00000000000021
 70
   192
  0
VERTEX
  5
5D2B
  8
0
 10
179.9999999999999
 20
709.0000000000001
 30
32.00000000000021
 70
   192
  0
VERTEX
  5
5D2C
  8
0
 10
179.9999999999999
 20
724.0000000000001
 30
32.00000000000021
 70
   192
  0
VERTEX
  5
5D2D
  8
0
 10
0.0
 20
0.0
 30
0.0
 70
   128
 71
     1
 72
     4
 73
    -3
  0
VERTEX
  5
5D2E
  8
0
 10
0.0
 20
0.0
 30
0.0
 70
   128
 71
    -1
 72
     3
 73
     2
  0
SEQEND
  5
5F02
  8
0
  0
ENDBLK
  5
5EEC
  8
0
  0
BLOCK
  8
0
  2
*X35
 70
     1
 10
0.0
 20
0.0
 30
0.0
  3
*X35
  1

  0
POLYLINE
  5
5D30
  8
0
 66
     1
 10
0.0
 20
0.0
 30
0.0
 70
    64
 71
     4
 72
     2
  0
VERTEX
  5
5D31
  8
0
 10
-287.0000000000003
 20
527.9999999999999
 30
-61.99999999999972
 70
   192
  0
VERTEX
  5
5D32
  8
0
 10
-287.0000000000003
 20
532.9999999999999
 30
-61.99999999999972
 70
   192
  0
VERTEX
  5
5D33
  8
0
 10
-287.0000000000003
 20
532.9999999999999
 30
58.00000000000028
 70
   192
  0
VERTEX
  5
5D34
  8
0
 10
-287.0000000000003
 20
527.9999999999999
 30
58.00000000000028
 70
   192
  0
VERTEX
  5
5D35
  8
0
 10
0.0
 20
0.0
 30
0.0
 70
   128
 71
     1
 72
     4
 73
    -3
  0
VERTEX
  5
5D36
  8
0
 10
0.0
 20
0.0
 30
0.0
 70
   128
 71
    -1
 72
     3
 73
     2
  0
SEQEND
  5
5F05
  8
0
  0
POLYLINE
  5
5D37
  8
0
 66
     1
 10
0.0
 20
0.0
 30
0.0
 70
    64
 71
     4
 72
     2
  0
VERTEX
  5
5D38
  8
0
 10
-287.0000000000003
 20
527.9999999999999
 30
58.00000000000028
 70
   192
  0
VERTEX
  5
5D39
  8
0
 10
-287.0000000000003
 20
532.9999999999999
 30
58.00000000000028
 70
   192
  0
VERTEX
  5
5D3A
  8
0
 10
286.9999999999997
 20
532.9999999999999
 30
58.00000000000021
 70
   192
  0
VERTEX
  5
5D3B
  8
0
 10
286.9999999999997
 20
527.9999999999999
 30
58.00000000000021
 70
   192
  0
VERTEX
  5
5D3C
  8
0
 10
0.0
 20
0.0
 30
0.0
 70
   128
 71
     1
 72
     4
 73
    -3
  0
VERTEX
  5
5D3D
  8
0
 10
0.0
 20
0.0
 30
0.0
 70
   128
 71
    -1
 72
     3
 73
     2
  0
SEQEND
  5
5F06
  8
0
  0
POLYLINE
  5
5D3E
  8
0
 66
     1
 10
0.0
 20
0.0
 30
0.0
 70
    64
 71
     4
 72
     2
  0
VERTEX
  5
5D3F
  8
0
 10
286.9999999999997
 20
527.9999999999999
 30
58.00000000000021
 70
   192
  0
VERTEX
  5
5D40
  8
0
 10
286.9999999999997
 20
532.9999999999999
 30
58.00000000000021
 70
   192
  0
VERTEX
  5
5D41
  8
0
 10
286.9999999999997
 20
532.9999999999999
 30
-61.99999999999979
 70
   192
  0
VERTEX
  5
5D42
  8
0
 10
286.9999999999997
 20
527.9999999999999
 30
-61.99999999999979
 70
   192
  0
VERTEX
  5
5D43
  8
0
 10
0.0
 20
0.0
 30
0.0
 70
   128
 71
     1
 72
     4
 73
    -3
  0
VERTEX
  5
5D44
  8
0
 10
0.0
 20
0.0
 30
0.0
 70
   128
 71
    -1
 72
     3
 73
     2
  0
SEQEND
  5
5F07
  8
0
  0
POLYLINE
  5
5D45
  8
0
 66
     1
 10
0.0
 20
0.0
 30
0.0
 70
    64
 71
     4
 72
     2
  0
VERTEX
  5
5D46
  8
0
 10
286.9999999999997
 20
527.9999999999999
 30
-61.99999999999979
 70
   192
  0
VERTEX
  5
5D47
  8
0
 10
286.9999999999997
 20
532.9999999999999
 30
-61.99999999999979
 70
   192
  0
VERTEX
  5
5D48
  8
0
 10
-287.0000000000003
 20
532.9999999999999
 30
-61.99999999999972
 70
   192
  0
VERTEX
  5
5D49
  8
0
 10
-287.0000000000003
 20
527.9999999999999
 30
-61.99999999999972
 70
   192
  0
VERTEX
  5
5D4A
  8
0
 10
0.0
 20
0.0
 30
0.0
 70
   128
 71
     1
 72
     4
 73
    -3
  0
VERTEX
  5
5D4B
  8
0
 10
0.0
 20
0.0
 30
0.0
 70
   128
 71
    -1
 72
     3
 73
     2
  0
SEQEND
  5
5F08
  8
0
  0
POLYLINE
  5
5D4C
  8
0
 66
     1
 10
0.0
 20
0.0
 30
0.0
 70
    64
 71
     4
 72
     2
  0
VERTEX
  5
5D4D
  8
0
 10
-287.0000000000003
 20
532.9999999999999
 30
-61.99999999999972
 70
   192
  0
VERTEX
  5
5D4E
  8
0
 10
-287.0000000000003
 20
532.9999999999999
 30
58.00000000000028
 70
   192
  0
VERTEX
  5
5D4F
  8
0
 10
286.9999999999997
 20
532.9999999999999
 30
58.00000000000021
 70
   192
  0
VERTEX
  5
5D50
  8
0
 10
286.9999999999997
 20
532.9999999999999
 30
-61.99999999999979
 70
   192
  0
VERTEX
  5
5D51
  8
0
 10
0.0
 20
0.0
 30
0.0
 70
   128
 71
     3
 72
     4
 73
    -1
  0
VERTEX
  5
5D52
  8
0
 10
0.0
 20
0.0
 30
0.0
 70
   128
 71
     2
 72
    -3
 73
     1
  0
SEQEND
  5
5F09
  8
0
  0
POLYLINE
  5
5D53
  8
0
 66
     1
 10
0.0
 20
0.0
 30
0.0
 70
    64
 71
     4
 72
     2
  0
VERTEX
  5
5D54
  8
0
 10
-287.0000000000003
 20
527.9999999999999
 30
58.00000000000028
 70
   192
  0
VERTEX
  5
5D55
  8
0
 10
286.9999999999997
 20
527.9999999999999
 30
58.00000000000021
 70
   192
  0
VERTEX
  5
5D56
  8
0
 10
286.9999999999997
 20
527.9999999999999
 30
-61.99999999999979
 70
   192
  0
VERTEX
  5
5D57
  8
0
 10
-287.0000000000003
 20
527.9999999999999
 30
-61.99999999999972
 70
   192
  0
VERTEX
  5
5D58
  8
0
 10
0.0
 20
0.0
 30
0.0
 70
   128
 71
     1
 72
     4
 73
    -3
  0
VERTEX
  5
5D59
  8
0
 10
0.0
 20
0.0
 30
0.0
 70
   128
 71
    -1
 72
     3
 73
     2
  0
SEQEND
  5
5F0A
  8
0
  0
ENDBLK
  5
5F04
  8
0
  0
BLOCK
  8
0
  2
*X36
 70
     1
 10
0.0
 20
0.0
 30
0.0
  3
*X36
  1

  0
POLYLINE
  5
5D5B
  8
0
 66
     1
 10
0.0
 20
0.0
 30
0.0
 70
    64
 71
     4
 72
     2
  0
VERTEX
  5
5D5C
  8
0
 10
-287.0000000000003
 20
345.4999999999999
 30
-61.99999999999972
 70
   192
  0
VERTEX
  5
5D5D
  8
0
 10
-287.0000000000003
 20
350.4999999999999
 30
-61.99999999999972
 70
   192
  0
VERTEX
  5
5D5E
  8
0
 10
-287.0000000000003
 20
350.4999999999999
 30
58.00000000000028
 70
   192
  0
VERTEX
  5
5D5F
  8
0
 10
-287.0000000000003
 20
345.4999999999999
 30
58.00000000000028
 70
   192
  0
VERTEX
  5
5D60
  8
0
 10
0.0
 20
0.0
 30
0.0
 70
   128
 71
     1
 72
     4
 73
    -3
  0
VERTEX
  5
5D61
  8
0
 10
0.0
 20
0.0
 30
0.0
 70
   128
 71
    -1
 72
     3
 73
     2
  0
SEQEND
  5
5F0D
  8
0
  0
POLYLINE
  5
5D62
  8
0
 66
     1
 10
0.0
 20
0.0
 30
0.0
 70
    64
 71
     4
 72
     2
  0
VERTEX
  5
5D63
  8
0
 10
-287.0000000000003
 20
345.4999999999999
 30
58.00000000000028
 70
   192
  0
VERTEX
  5
5D64
  8
0
 10
-287.0000000000003
 20
350.4999999999999
 30
58.00000000000028
 70
   192
  0
VERTEX
  5
5D65
  8
0
 10
286.9999999999997
 20
350.4999999999999
 30
58.00000000000021
 70
   192
  0
VERTEX
  5
5D66
  8
0
 10
286.9999999999997
 20
345.4999999999999
 30
58.00000000000021
 70
   192
  0
VERTEX
  5
5D67
  8
0
 10
0.0
 20
0.0
 30
0.0
 70
   128
 71
     1
 72
     4
 73
    -3
  0
VERTEX
  5
5D68
  8
0
 10
0.0
 20
0.0
 30
0.0
 70
   128
 71
    -1
 72
     3
 73
     2
  0
SEQEND
  5
5F0E
  8
0
  0
POLYLINE
  5
5D69
  8
0
 66
     1
 10
0.0
 20
0.0
 30
0.0
 70
    64
 71
     4
 72
     2
  0
VERTEX
  5
5D6A
  8
0
 10
286.9999999999997
 20
345.4999999999999
 30
58.00000000000021
 70
   192
  0
VERTEX
  5
5D6B
  8
0
 10
286.9999999999997
 20
350.4999999999999
 30
58.00000000000021
 70
   192
  0
VERTEX
  5
5D6C
  8
0
 10
286.9999999999997
 20
350.4999999999999
 30
-61.99999999999979
 70
   192
  0
VERTEX
  5
5D6D
  8
0
 10
286.9999999999997
 20
345.4999999999999
 30
-61.99999999999979
 70
   192
  0
VERTEX
  5
5D6E
  8
0
 10
0.0
 20
0.0
 30
0.0
 70
   128
 71
     1
 72
     4
 73
    -3
  0
VERTEX
  5
5D6F
  8
0
 10
0.0
 20
0.0
 30
0.0
 70
   128
 71
    -1
 72
     3
 73
     2
  0
SEQEND
  5
5F0F
  8
0
  0
POLYLINE
  5
5D70
  8
0
 66
     1
 10
0.0
 20
0.0
 30
0.0
 70
    64
 71
     4
 72
     2
  0
VERTEX
  5
5D71
  8
0
 10
286.9999999999997
 20
345.4999999999999
 30
-61.99999999999979
 70
   192
  0
VERTEX
  5
5D72
  8
0
 10
286.9999999999997
 20
350.4999999999999
 30
-61.99999999999979
 70
   192
  0
VERTEX
  5
5D73
  8
0
 10
-287.0000000000003
 20
350.4999999999999
 30
-61.99999999999972
 70
   192
  0
VERTEX
  5
5D74
  8
0
 10
-287.0000000000003
 20
345.4999999999999
 30
-61.99999999999972
 70
   192
  0
VERTEX
  5
5D75
  8
0
 10
0.0
 20
0.0
 30
0.0
 70
   128
 71
     1
 72
     4
 73
    -3
  0
VERTEX
  5
5D76
  8
0
 10
0.0
 20
0.0
 30
0.0
 70
   128
 71
    -1
 72
     3
 73
     2
  0
SEQEND
  5
5F10
  8
0
  0
POLYLINE
  5
5D77
  8
0
 66
     1
 10
0.0
 20
0.0
 30
0.0
 70
    64
 71
     4
 72
     2
  0
VERTEX
  5
5D78
  8
0
 10
-287.0000000000003
 20
350.4999999999999
 30
-61.99999999999972
 70
   192
  0
VERTEX
  5
5D79
  8
0
 10
-287.0000000000003
 20
350.4999999999999
 30
58.00000000000028
 70
   192
  0
VERTEX
  5
5D7A
  8
0
 10
286.9999999999997
 20
350.4999999999999
 30
58.00000000000021
 70
   192
  0
VERTEX
  5
5D7B
  8
0
 10
286.9999999999997
 20
350.4999999999999
 30
-61.99999999999979
 70
   192
  0
VERTEX
  5
5D7C
  8
0
 10
0.0
 20
0.0
 30
0.0
 70
   128
 71
     3
 72
     4
 73
    -1
  0
VERTEX
  5
5D7D
  8
0
 10
0.0
 20
0.0
 30
0.0
 70
   128
 71
     2
 72
    -3
 73
     1
  0
SEQEND
  5
5F11
  8
0
  0
POLYLINE
  5
5D7E
  8
0
 66
     1
 10
0.0
 20
0.0
 30
0.0
 70
    64
 71
     4
 72
     2
  0
VERTEX
  5
5D7F
  8
0
 10
-287.0000000000003
 20
345.4999999999999
 30
58.00000000000028
 70
   192
  0
VERTEX
  5
5D80
  8
0
 10
286.9999999999997
 20
345.4999999999999
 30
58.00000000000021
 70
   192
  0
VERTEX
  5
5D81
  8
0
 10
286.9999999999997
 20
345.4999999999999
 30
-61.99999999999979
 70
   192
  0
VERTEX
  5
5D82
  8
0
 10
-287.0000000000003
 20
345.4999999999999
 30
-61.99999999999972
 70
   192
  0
VERTEX
  5
5D83
  8
0
 10
0.0
 20
0.0
 30
0.0
 70
   128
 71
     1
 72
     4
 73
    -3
  0
VERTEX
  5
5D84
  8
0
 10
0.0
 20
0.0
 30
0.0
 70
   128
 71
    -1
 72
     3
 73
     2
  0
SEQEND
  5
5F12
  8
0
  0
ENDBLK
  5
5F0C
  8
0
  0
BLOCK
  8
0
  2
*X37
 70
     1
 10
0.0
 20
0.0
 30
0.0
  3
*X37
  1

  0
POLYLINE
  5
5D86
  8
0
 66
     1
 10
0.0
 20
0.0
 30
0.0
 70
    64
 71
     4
 72
     2
  0
VERTEX
  5
5D87
  8
0
 10
-287.0000000000003
 20
162.9999999999999
 30
-61.99999999999972
 70
   192
  0
VERTEX
  5
5D88
  8
0
 10
-287.0000000000003
 20
167.9999999999999
 30
-61.99999999999972
 70
   192
  0
VERTEX
  5
5D89
  8
0
 10
-287.0000000000003
 20
167.9999999999999
 30
58.00000000000028
 70
   192
  0
VERTEX
  5
5D8A
  8
0
 10
-287.0000000000003
 20
162.9999999999999
 30
58.00000000000028
 70
   192
  0
VERTEX
  5
5D8B
  8
0
 10
0.0
 20
0.0
 30
0.0
 70
   128
 71
     1
 72
     4
 73
    -3
  0
VERTEX
  5
5D8C
  8
0
 10
0.0
 20
0.0
 30
0.0
 70
   128
 71
    -1
 72
     3
 73
     2
  0
SEQEND
  5
5F15
  8
0
  0
POLYLINE
  5
5D8D
  8
0
 66
     1
 10
0.0
 20
0.0
 30
0.0
 70
    64
 71
     4
 72
     2
  0
VERTEX
  5
5D8E
  8
0
 10
-287.0000000000003
 20
162.9999999999999
 30
58.00000000000028
 70
   192
  0
VERTEX
  5
5D8F
  8
0
 10
-287.0000000000003
 20
167.9999999999999
 30
58.00000000000028
 70
   192
  0
VERTEX
  5
5D90
  8
0
 10
286.9999999999997
 20
167.9999999999999
 30
58.00000000000021
 70
   192
  0
VERTEX
  5
5D91
  8
0
 10
286.9999999999997
 20
162.9999999999999
 30
58.00000000000021
 70
   192
  0
VERTEX
  5
5D92
  8
0
 10
0.0
 20
0.0
 30
0.0
 70
   128
 71
     1
 72
     4
 73
    -3
  0
VERTEX
  5
5D93
  8
0
 10
0.0
 20
0.0
 30
0.0
 70
   128
 71
    -1
 72
     3
 73
     2
  0
SEQEND
  5
5F16
  8
0
  0
POLYLINE
  5
5D94
  8
0
 66
     1
 10
0.0
 20
0.0
 30
0.0
 70
    64
 71
     4
 72
     2
  0
VERTEX
  5
5D95
  8
0
 10
286.9999999999997
 20
162.9999999999999
 30
58.00000000000021
 70
   192
  0
VERTEX
  5
5D96
  8
0
 10
286.9999999999997
 20
167.9999999999999
 30
58.00000000000021
 70
   192
  0
VERTEX
  5
5D97
  8
0
 10
286.9999999999997
 20
167.9999999999999
 30
-61.99999999999979
 70
   192
  0
VERTEX
  5
5D98
  8
0
 10
286.9999999999997
 20
162.9999999999999
 30
-61.99999999999979
 70
   192
  0
VERTEX
  5
5D99
  8
0
 10
0.0
 20
0.0
 30
0.0
 70
   128
 71
     1
 72
     4
 73
    -3
  0
VERTEX
  5
5D9A
  8
0
 10
0.0
 20
0.0
 30
0.0
 70
   128
 71
    -1
 72
     3
 73
     2
  0
SEQEND
  5
5F17
  8
0
  0
POLYLINE
  5
5D9B
  8
0
 66
     1
 10
0.0
 20
0.0
 30
0.0
 70
    64
 71
     4
 72
     2
  0
VERTEX
  5
5D9C
  8
0
 10
286.9999999999997
 20
162.9999999999999
 30
-61.99999999999979
 70
   192
  0
VERTEX
  5
5D9D
  8
0
 10
286.9999999999997
 20
167.9999999999999
 30
-61.99999999999979
 70
   192
  0
VERTEX
  5
5D9E
  8
0
 10
-287.0000000000003
 20
167.9999999999999
 30
-61.99999999999972
 70
   192
  0
VERTEX
  5
5D9F
  8
0
 10
-287.0000000000003
 20
162.9999999999999
 30
-61.99999999999972
 70
   192
  0
VERTEX
  5
5DA0
  8
0
 10
0.0
 20
0.0
 30
0.0
 70
   128
 71
     1
 72
     4
 73
    -3
  0
VERTEX
  5
5DA1
  8
0
 10
0.0
 20
0.0
 30
0.0
 70
   128
 71
    -1
 72
     3
 73
     2
  0
SEQEND
  5
5F18
  8
0
  0
POLYLINE
  5
5DA2
  8
0
 66
     1
 10
0.0
 20
0.0
 30
0.0
 70
    64
 71
     4
 72
     2
  0
VERTEX
  5
5DA3
  8
0
 10
-287.0000000000003
 20
167.9999999999999
 30
-61.99999999999972
 70
   192
  0
VERTEX
  5
5DA4
  8
0
 10
-287.0000000000003
 20
167.9999999999999
 30
58.00000000000028
 70
   192
  0
VERTEX
  5
5DA5
  8
0
 10
286.9999999999997
 20
167.9999999999999
 30
58.00000000000021
 70
   192
  0
VERTEX
  5
5DA6
  8
0
 10
286.9999999999997
 20
167.9999999999999
 30
-61.99999999999979
 70
   192
  0
VERTEX
  5
5DA7
  8
0
 10
0.0
 20
0.0
 30
0.0
 70
   128
 71
     3
 72
     4
 73
    -1
  0
VERTEX
  5
5DA8
  8
0
 10
0.0
 20
0.0
 30
0.0
 70
   128
 71
     2
 72
    -3
 73
     1
  0
SEQEND
  5
5F19
  8
0
  0
POLYLINE
  5
5DA9
  8
0
 66
     1
 10
0.0
 20
0.0
 30
0.0
 70
    64
 71
     4
 72
     2
  0
VERTEX
  5
5DAA
  8
0
 10
-287.0000000000003
 20
162.9999999999999
 30
58.00000000000028
 70
   192
  0
VERTEX
  5
5DAB
  8
0
 10
286.9999999999997
 20
162.9999999999999
 30
58.00000000000021
 70
   192
  0
VERTEX
  5
5DAC
  8
0
 10
286.9999999999997
 20
162.9999999999999
 30
-61.99999999999979
 70
   192
  0
VERTEX
  5
5DAD
  8
0
 10
-287.0000000000003
 20
162.9999999999999
 30
-61.99999999999972
 70
   192
  0
VERTEX
  5
5DAE
  8
0
 10
0.0
 20
0.0
 30
0.0
 70
   128
 71
     1
 72
     4
 73
    -3
  0
VERTEX
  5
5DAF
  8
0
 10
0.0
 20
0.0
 30
0.0
 70
   128
 71
    -1
 72
     3
 73
     2
  0
SEQEND
  5
5F1A
  8
0
  0
ENDBLK
  5
5F14
  8
0
  0
ENDSEC
  0
SECTION
  2
ENTITIES
  0
INSERT
  5
4615
  8
0
  2
*X1
 10
0.0
 20
0.0
 30
0.0
  0
INSERT
  5
4616
  8
0
  2
*X2
 10
0.0
 20
0.0
 30
0.0
  0
INSERT
  5
4617
  8
0
  2
*X3
 10
0.0
 20
0.0
 30
0.0
  0
INSERT
  5
4618
  8
0
  2
*X4
 10
0.0
 20
0.0
 30
0.0
  0
INSERT
  5
4619
  8
0
  2
*X5
 10
0.0
 20
0.0
 30
0.0
  0
INSERT
  5
461A
  8
0
  2
*X6
 10
0.0
 20
0.0
 30
0.0
  0
INSERT
  5
461B
  8
0
  2
*X7
 10
0.0
 20
0.0
 30
0.0
  0
INSERT
  5
461C
  8
0
  2
*X8
 10
0.0
 20
0.0
 30
0.0
  0
INSERT
  5
461D
  8
0
  2
*X9
 10
0.0
 20
0.0
 30
0.0
  0
INSERT
  5
461E
  8
0
  2
*X10
 10
0.0
 20
0.0
 30
0.0
  0
INSERT
  5
461F
  8
0
  2
*X11
 10
0.0
 20
0.0
 30
0.0
  0
INSERT
  5
4620
  8
0
  2
*X12
 10
0.0
 20
0.0
 30
0.0
  0
INSERT
  5
4621
  8
0
  2
*X13
 10
0.0
 20
0.0
 30
0.0
  0
INSERT
  5
4622
  8
0
  2
*X14
 10
0.0
 20
0.0
 30
0.0
  0
INSERT
  5
4623
  8
0
  2
*X15
 10
0.0
 20
0.0
 30
0.0
  0
INSERT
  5
4624
  8
0
  2
*X16
 10
0.0
 20
0.0
 30
0.0
  0
INSERT
  5
4625
  8
0
  2
*X17
 10
0.0
 20
0.0
 30
0.0
  0
INSERT
  5
4626
  8
0
  2
*X18
 10
0.0
 20
0.0
 30
0.0
  0
INSERT
  5
4627
  8
0
  2
*X19
 10
0.0
 20
0.0
 30
0.0
  0
INSERT
  5
4628
  8
0
  2
*X20
 10
0.0
 20
0.0
 30
0.0
  0
INSERT
  5
4629
  8
0
  2
*X21
 10
0.0
 20
0.0
 30
0.0
  0
INSERT
  5
462A
  8
0
  2
*X22
 10
0.0
 20
0.0
 30
0.0
  0
INSERT
  5
462B
  8
0
  2
*X23
 10
0.0
 20
0.0
 30
0.0
  0
INSERT
  5
462C
  8
0
  2
*X24
 10
0.0
 20
0.0
 30
0.0
  0
INSERT
  5
462D
  8
0
  2
*X25
 10
0.0
 20
0.0
 30
0.0
  0
INSERT
  5
462E
  8
0
  2
*X26
 10
0.0
 20
0.0
 30
0.0
  0
INSERT
  5
462F
  8
0
  2
*X27
 10
0.0
 20
0.0
 30
0.0
  0
INSERT
  5
4630
  8
0
  2
*X28
 10
0.0
 20
0.0
 30
0.0
  0
INSERT
  5
4631
  8
0
  2
*X29
 10
0.0
 20
0.0
 30
0.0
  0
INSERT
  5
4632
  8
0
  2
*X30
 10
0.0
 20
0.0
 30
0.0
  0
INSERT
  5
4633
  8
0
  2
*X31
 10
0.0
 20
0.0
 30
0.0
  0
INSERT
  5
4634
  8
0
  2
*X32
 10
0.0
 20
0.0
 30
0.0
  0
INSERT
  5
4635
  8
0
  2
*X33
 10
0.0
 20
0.0
 30
0.0
  0
INSERT
  5
4636
  8
0
  2
*X34
 10
0.0
 20
0.0
 30
0.0
  0
INSERT
  5
4637
  8
0
  2
*X35
 10
0.0
 20
0.0
 30
0.0
  0
INSERT
  5
4638
  8
0
  2
*X36
 10
0.0
 20
0.0
 30
0.0
  0
INSERT
  5
4639
  8
0
  2
*X37
 10
0.0
 20
0.0
 30
0.0
  0
ENDSEC
  0
EOF
