  0
SECTION
  2
HEADER
  9
$ACADVER
  1
AC1009
  9
$DWGCODEPAGE
  3
ansi_1250
  9
$INSBASE
 10
0.0
 20
0.0
 30
0.0
  9
$EXTMIN
 10
-427.9999999999999
 20
-9.500000000000142
 30
-89.00000000000009
  9
$EXTMAX
 10
427.9999999999999
 20
738.0000000000001
 30
137.0000000000001
  9
$LIMMIN
 10
0.0
 20
0.0
  9
$LIMMAX
 10
420.0
 20
297.0
  9
$ORTHOMODE
 70
     0
  9
$REGENMODE
 70
     1
  9
$FILLMODE
 70
     1
  9
$QTEXTMODE
 70
     0
  9
$MIRRTEXT
 70
     0
  9
$DRAGMODE
 70
     2
  9
$LTSCALE
 40
1.0
  9
$OSMODE
 70
   511
  9
$ATTMODE
 70
     1
  9
$TEXTSIZE
 40
2.5
  9
$TRACEWID
 40
1.0
  9
$TEXTSTYLE
  7
STANDARD
  9
$CLAYER
  8
0
  9
$CELTYPE
  6
BYLAYER
  9
$CECOLOR
 62
   256
  9
$DIMSCALE
 40
1.0
  9
$DIMASZ
 40
2.5
  9
$DIMEXO
 40
0.625
  9
$DIMDLI
 40
3.75
  9
$DIMRND
 40
0.0
  9
$DIMDLE
 40
0.0
  9
$DIMEXE
 40
1.25
  9
$DIMTP
 40
0.0
  9
$DIMTM
 40
0.0
  9
$DIMTXT
 40
2.5
  9
$DIMCEN
 40
-2.5
  9
$DIMTSZ
 40
0.0
  9
$DIMTOL
 70
     0
  9
$DIMLIM
 70
     0
  9
$DIMTIH
 70
     0
  9
$DIMTOH
 70
     0
  9
$DIMSE1
 70
     0
  9
$DIMSE2
 70
     0
  9
$DIMTAD
 70
     1
  9
$DIMZIN
 70
     8
  9
$DIMBLK
  1

  9
$DIMASO
 70
     1
  9
$DIMSHO
 70
     1
  9
$DIMPOST
  1

  9
$DIMAPOST
  1

  9
$DIMALT
 70
     0
  9
$DIMALTD
 70
     3
  9
$DIMALTF
 40
0.03937007874016
  9
$DIMLFAC
 40
1.0
  9
$DIMTOFL
 70
     1
  9
$DIMTVP
 40
0.0
  9
$DIMTIX
 70
     0
  9
$DIMSOXD
 70
     0
  9
$DIMSAH
 70
     0
  9
$DIMBLK1
  1

  9
$DIMBLK2
  1

  9
$DIMSTYLE
  2
ISO-25
  9
$DIMCLRD
 70
     0
  9
$DIMCLRE
 70
     0
  9
$DIMCLRT
 70
     0
  9
$DIMTFAC
 40
1.0
  9
$DIMGAP
 40
0.625
  9
$LUNITS
 70
     2
  9
$LUPREC
 70
     3
  9
$SKETCHINC
 40
1.0
  9
$FILLETRAD
 40
10.0
  9
$AUNITS
 70
     0
  9
$AUPREC
 70
     0
  9
$MENU
  1
.
  9
$ELEVATION
 40
0.0
  9
$PELEVATION
 40
0.0
  9
$THICKNESS
 40
0.0
  9
$LIMCHECK
 70
     0
  9
$CHAMFERA
 40
10.0
  9
$CHAMFERB
 40
10.0
  9
$SKPOLY
 70
     0
  9
$TDCREATE
 40
2455022.720692848
  9
$TDUPDATE
 40
2460543.688643588
  9
$TDINDWG
 40
0.0484081134
  9
$TDUSRTIMER
 40
0.0484081134
  9
$USRTIMER
 70
     1
  9
$ANGBASE
 50
0.0
  9
$ANGDIR
 70
     0
  9
$PDMODE
 70
     0
  9
$PDSIZE
 40
0.0
  9
$PLINEWID
 40
0.0
  9
$COORDS
 70
     1
  9
$SPLFRAME
 70
     0
  9
$SPLINETYPE
 70
     6
  9
$SPLINESEGS
 70
     8
  9
$ATTDIA
 70
     0
  9
$ATTREQ
 70
     1
  9
$HANDLING
 70
     1
  9
$HANDSEED
  5
304A
  9
$SURFTAB1
 70
     6
  9
$SURFTAB2
 70
     6
  9
$SURFTYPE
 70
     6
  9
$SURFU
 70
     6
  9
$SURFV
 70
     6
  9
$UCSNAME
  2

  9
$UCSORG
 10
0.0
 20
0.0
 30
0.0
  9
$UCSXDIR
 10
1.0
 20
0.0
 30
0.0
  9
$UCSYDIR
 10
0.0
 20
1.0
 30
0.0
  9
$PUCSNAME
  2

  9
$PUCSORG
 10
0.0
 20
0.0
 30
0.0
  9
$PUCSXDIR
 10
1.0
 20
0.0
 30
0.0
  9
$PUCSYDIR
 10
0.0
 20
1.0
 30
0.0
  9
$USERI1
 70
     0
  9
$USERI2
 70
     0
  9
$USERI3
 70
     0
  9
$USERI4
 70
     0
  9
$USERI5
 70
     0
  9
$USERR1
 40
0.0
  9
$USERR2
 40
0.0
  9
$USERR3
 40
0.0
  9
$USERR4
 40
0.0
  9
$USERR5
 40
0.0
  9
$WORLDVIEW
 70
     1
  9
$SHADEDGE
 70
     3
  9
$SHADEDIF
 70
    70
  9
$TILEMODE
 70
     1
  9
$MAXACTVP
 70
    64
  9
$PLIMCHECK
 70
     0
  9
$PEXTMIN
 10
1.000000000000000E+20
 20
1.000000000000000E+20
 30
1.000000000000000E+20
  9
$PEXTMAX
 10
-1.000000000000000E+20
 20
-1.000000000000000E+20
 30
-1.000000000000000E+20
  9
$PLIMMIN
 10
0.0
 20
0.0
  9
$PLIMMAX
 10
0.0
 20
0.0
  9
$UNITMODE
 70
     0
  9
$VISRETAIN
 70
     1
  9
$PLINEGEN
 70
     0
  9
$PSLTSCALE
 70
     1
  0
ENDSEC
  0
SECTION
  2
TABLES
  0
TABLE
  2
VPORT
 70
     1
  0
VPORT
  2
*ACTIVE
 70
     0
 10
0.0
 20
0.0
 11
1.0
 21
1.0
 12
162.6791668763921
 22
-183.8901008730298
 13
0.0
 23
0.0
 14
10.0
 24
10.0
 15
10.0
 25
10.0
 16
0.5773502691896226
 26
0.5773502691896226
 36
0.5773502691896226
 17
-134.1869158878504
 27
-0.0000000000000426
 37
0.0
 40
730.1806448749517
 41
1.739930955120828
 42
50.0
 43
0.0
 44
0.0
 50
0.0
 51
0.0
 71
    16
 72
  1000
 73
     1
 74
     3
 75
     0
 76
     0
 77
     0
 78
     0
  0
ENDTAB
  0
TABLE
  2
LTYPE
 70
     1
  0
LTYPE
  2
CONTINUOUS
 70
     0
  3
Solid line
 72
    65
 73
     0
 40
0.0
  0
ENDTAB
  0
TABLE
  2
LAYER
 70
     1
  0
LAYER
  2
0
 70
     0
 62
     7
  6
CONTINUOUS
  0
ENDTAB
  0
TABLE
  2
STYLE
 70
     2
  0
STYLE
  2
STANDARD
 70
     0
 40
0.0
 41
1.0
 50
0.0
 71
     0
 42
2.5
  3
arial.ttf
  4

  0
STYLE
  2
ANNOTATIVE
 70
     0
 40
0.0
 41
1.0
 50
0.0
 71
     0
 42
2.5
  3
arial.ttf
  4

  0
ENDTAB
  0
TABLE
  2
VIEW
 70
     0
  0
ENDTAB
  0
TABLE
  2
UCS
 70
     0
  0
ENDTAB
  0
TABLE
  2
APPID
 70
     2
  0
APPID
  2
ACAD
 70
     0
  0
APPID
  2
ACADANNOTATIVE
 70
     0
  0
ENDTAB
  0
TABLE
  2
DIMSTYLE
 70
     2
  0
DIMSTYLE
  2
ISO-25
 70
     0
  3

  4

  5

  6

  7

 40
1.0
 41
2.5
 42
0.625
 43
3.75
 44
1.25
 45
0.0
 46
0.0
 47
0.0
 48
0.0
140
2.5
141
-2.5
142
0.0
143
0.03937007874016
144
1.0
145
0.0
146
1.0
147
0.625
 71
     0
 72
     0
 73
     0
 74
     0
 75
     0
 76
     0
 77
     1
 78
     8
170
     0
171
     3
172
     1
173
     0
174
     0
175
     0
176
     0
177
     0
178
     0
  0
DIMSTYLE
  2
ANNOTATIVE
 70
     0
  3

  4

  5

  6

  7

 40
0.0
 41
2.5
 42
0.625
 43
3.75
 44
1.25
 45
0.0
 46
0.0
 47
0.0
 48
0.0
140
2.5
141
-2.5
142
0.0
143
0.03937007874016
144
1.0
145
0.0
146
1.0
147
0.625
 71
     0
 72
     0
 73
     0
 74
     0
 75
     0
 76
     0
 77
     1
 78
     8
170
     0
171
     3
172
     1
173
     0
174
     0
175
     0
176
     0
177
     0
178
     0
  0
ENDTAB
  0
ENDSEC
  0
SECTION
  2
BLOCKS
  0
BLOCK
  8
0
  2
$MODEL_SPACE
 70
     0
 10
0.0
 20
0.0
 30
0.0
  3
$MODEL_SPACE
  1

  0
ENDBLK
  5
21
  8
0
  0
BLOCK
 67
     1
  8
0
  2
$PAPER_SPACE
 70
     0
 10
0.0
 20
0.0
 30
0.0
  3
$PAPER_SPACE
  1

  0
ENDBLK
  5
1D
 67
     1
  8
0
  0
BLOCK
  8
0
  2
*X1
 70
     1
 10
0.0
 20
0.0
 30
0.0
  3
*X1
  1

  0
POLYLINE
  5
2780
  8
0
 66
     1
 10
0.0
 20
0.0
 30
0.0
 70
    64
 71
     4
 72
     2
  0
VERTEX
  5
2781
  8
0
 10
-384.9999999999999
 20
0.0
 30
-61.99999999999994
 70
   192
  0
VERTEX
  5
2782
  8
0
 10
-384.9999999999999
 20
0.0
 30
62.00000000000006
 70
   192
  0
VERTEX
  5
2783
  8
0
 10
-384.9999999999999
 20
18.0
 30
62.00000000000006
 70
   192
  0
VERTEX
  5
2784
  8
0
 10
-384.9999999999999
 20
18.0
 30
-61.99999999999994
 70
   192
  0
VERTEX
  5
2785
  8
0
 10
0.0
 20
0.0
 30
0.0
 70
   128
 71
     3
 72
     4
 73
    -1
  0
VERTEX
  5
2786
  8
0
 10
0.0
 20
0.0
 30
0.0
 70
   128
 71
     2
 72
    -3
 73
     1
  0
SEQEND
  5
2F52
  8
0
  0
POLYLINE
  5
2787
  8
0
 66
     1
 10
0.0
 20
0.0
 30
0.0
 70
    64
 71
     4
 72
     2
  0
VERTEX
  5
2788
  8
0
 10
-384.9999999999999
 20
0.0
 30
62.00000000000006
 70
   192
  0
VERTEX
  5
2789
  8
0
 10
384.9999999999999
 20
0.0
 30
61.99999999999996
 70
   192
  0
VERTEX
  5
278A
  8
0
 10
384.9999999999999
 20
18.0
 30
61.99999999999996
 70
   192
  0
VERTEX
  5
278B
  8
0
 10
-384.9999999999999
 20
18.0
 30
62.00000000000006
 70
   192
  0
VERTEX
  5
278C
  8
0
 10
0.0
 20
0.0
 30
0.0
 70
   128
 71
     3
 72
     4
 73
    -1
  0
VERTEX
  5
278D
  8
0
 10
0.0
 20
0.0
 30
0.0
 70
   128
 71
     2
 72
    -3
 73
     1
  0
SEQEND
  5
2F53
  8
0
  0
POLYLINE
  5
278E
  8
0
 66
     1
 10
0.0
 20
0.0
 30
0.0
 70
    64
 71
     4
 72
     2
  0
VERTEX
  5
278F
  8
0
 10
384.9999999999999
 20
0.0
 30
61.99999999999996
 70
   192
  0
VERTEX
  5
2790
  8
0
 10
384.9999999999999
 20
18.0
 30
61.99999999999996
 70
   192
  0
VERTEX
  5
2791
  8
0
 10
385.0
 20
18.0
 30
-62.00000000000009
 70
   192
  0
VERTEX
  5
2792
  8
0
 10
385.0
 20
0.0
 30
-62.00000000000009
 70
   192
  0
VERTEX
  5
2793
  8
0
 10
0.0
 20
0.0
 30
0.0
 70
   128
 71
     1
 72
     4
 73
    -3
  0
VERTEX
  5
2794
  8
0
 10
0.0
 20
0.0
 30
0.0
 70
   128
 71
    -1
 72
     3
 73
     2
  0
SEQEND
  5
2F54
  8
0
  0
POLYLINE
  5
2795
  8
0
 66
     1
 10
0.0
 20
0.0
 30
0.0
 70
    64
 71
     4
 72
     2
  0
VERTEX
  5
2796
  8
0
 10
385.0
 20
0.0
 30
-62.00000000000009
 70
   192
  0
VERTEX
  5
2797
  8
0
 10
385.0
 20
18.0
 30
-62.00000000000009
 70
   192
  0
VERTEX
  5
2798
  8
0
 10
-384.9999999999999
 20
18.0
 30
-61.99999999999994
 70
   192
  0
VERTEX
  5
2799
  8
0
 10
-384.9999999999999
 20
0.0
 30
-61.99999999999994
 70
   192
  0
VERTEX
  5
279A
  8
0
 10
0.0
 20
0.0
 30
0.0
 70
   128
 71
     1
 72
     4
 73
    -3
  0
VERTEX
  5
279B
  8
0
 10
0.0
 20
0.0
 30
0.0
 70
   128
 71
    -1
 72
     3
 73
     2
  0
SEQEND
  5
2F55
  8
0
  0
POLYLINE
  5
279C
  8
0
 66
     1
 10
0.0
 20
0.0
 30
0.0
 70
    64
 71
     4
 72
     2
  0
VERTEX
  5
279D
  8
0
 10
-384.9999999999999
 20
18.0
 30
-61.99999999999994
 70
   192
  0
VERTEX
  5
279E
  8
0
 10
-384.9999999999999
 20
18.0
 30
62.00000000000006
 70
   192
  0
VERTEX
  5
279F
  8
0
 10
384.9999999999999
 20
18.0
 30
61.99999999999996
 70
   192
  0
VERTEX
  5
27A0
  8
0
 10
385.0
 20
18.0
 30
-62.00000000000009
 70
   192
  0
VERTEX
  5
27A1
  8
0
 10
0.0
 20
0.0
 30
0.0
 70
   128
 71
     3
 72
     4
 73
    -1
  0
VERTEX
  5
27A2
  8
0
 10
0.0
 20
0.0
 30
0.0
 70
   128
 71
     2
 72
    -3
 73
     1
  0
SEQEND
  5
2F56
  8
0
  0
POLYLINE
  5
27A3
  8
0
 66
     1
 10
0.0
 20
0.0
 30
0.0
 70
    64
 71
     4
 72
     2
  0
VERTEX
  5
27A4
  8
0
 10
-384.9999999999999
 20
0.0
 30
62.00000000000006
 70
   192
  0
VERTEX
  5
27A5
  8
0
 10
384.9999999999999
 20
0.0
 30
61.99999999999996
 70
   192
  0
VERTEX
  5
27A6
  8
0
 10
385.0
 20
0.0
 30
-62.00000000000009
 70
   192
  0
VERTEX
  5
27A7
  8
0
 10
-384.9999999999999
 20
0.0
 30
-61.99999999999994
 70
   192
  0
VERTEX
  5
27A8
  8
0
 10
0.0
 20
0.0
 30
0.0
 70
   128
 71
     1
 72
     4
 73
    -3
  0
VERTEX
  5
27A9
  8
0
 10
0.0
 20
0.0
 30
0.0
 70
   128
 71
    -1
 72
     3
 73
     2
  0
SEQEND
  5
2F57
  8
0
  0
ENDBLK
  5
2F51
  8
0
  0
BLOCK
  8
0
  2
*X2
 70
     1
 10
0.0
 20
0.0
 30
0.0
  3
*X2
  1

  0
POLYLINE
  5
27AB
  8
0
 66
     1
 10
0.0
 20
0.0
 30
0.0
 70
    64
 71
     4
 72
     2
  0
VERTEX
  5
27AC
  8
0
 10
-402.9999999999999
 20
-0.5
 30
-88.99999999999996
 70
   192
  0
VERTEX
  5
27AD
  8
0
 10
-402.9999999999999
 20
-0.5
 30
62.00000000000007
 70
   192
  0
VERTEX
  5
27AE
  8
0
 10
-402.9999999999999
 20
700.5
 30
62.00000000000006
 70
   192
  0
VERTEX
  5
27AF
  8
0
 10
-402.9999999999999
 20
700.5
 30
-88.99999999999996
 70
   192
  0
VERTEX
  5
27B0
  8
0
 10
0.0
 20
0.0
 30
0.0
 70
   128
 71
     3
 72
     4
 73
    -1
  0
VERTEX
  5
27B1
  8
0
 10
0.0
 20
0.0
 30
0.0
 70
   128
 71
     2
 72
    -3
 73
     1
  0
SEQEND
  5
2F5A
  8
0
  0
POLYLINE
  5
27B2
  8
0
 66
     1
 10
0.0
 20
0.0
 30
0.0
 70
    64
 71
     4
 72
     2
  0
VERTEX
  5
27B3
  8
0
 10
-402.9999999999999
 20
-0.5
 30
62.00000000000006
 70
   192
  0
VERTEX
  5
27B4
  8
0
 10
-384.9999999999999
 20
-0.5
 30
62.00000000000006
 70
   192
  0
VERTEX
  5
27B5
  8
0
 10
-384.9999999999999
 20
700.5
 30
62.00000000000006
 70
   192
  0
VERTEX
  5
27B6
  8
0
 10
-402.9999999999999
 20
700.5
 30
62.00000000000006
 70
   192
  0
VERTEX
  5
27B7
  8
0
 10
0.0
 20
0.0
 30
0.0
 70
   128
 71
     3
 72
     4
 73
    -1
  0
VERTEX
  5
27B8
  8
0
 10
0.0
 20
0.0
 30
0.0
 70
   128
 71
     2
 72
    -3
 73
     1
  0
SEQEND
  5
2F5B
  8
0
  0
POLYLINE
  5
27B9
  8
0
 66
     1
 10
0.0
 20
0.0
 30
0.0
 70
    64
 71
     4
 72
     2
  0
VERTEX
  5
27BA
  8
0
 10
-384.9999999999999
 20
-0.5
 30
62.00000000000006
 70
   192
  0
VERTEX
  5
27BB
  8
0
 10
-384.9999999999999
 20
700.5
 30
62.00000000000006
 70
   192
  0
VERTEX
  5
27BC
  8
0
 10
-384.9999999999999
 20
700.5
 30
-88.99999999999994
 70
   192
  0
VERTEX
  5
27BD
  8
0
 10
-385.0
 20
-0.5
 30
-88.99999999999994
 70
   192
  0
VERTEX
  5
27BE
  8
0
 10
0.0
 20
0.0
 30
0.0
 70
   128
 71
     1
 72
     4
 73
    -3
  0
VERTEX
  5
27BF
  8
0
 10
0.0
 20
0.0
 30
0.0
 70
   128
 71
    -1
 72
     3
 73
     2
  0
SEQEND
  5
2F5C
  8
0
  0
POLYLINE
  5
27C0
  8
0
 66
     1
 10
0.0
 20
0.0
 30
0.0
 70
    64
 71
     4
 72
     2
  0
VERTEX
  5
27C1
  8
0
 10
-384.9999999999999
 20
-0.5
 30
-88.99999999999994
 70
   192
  0
VERTEX
  5
27C2
  8
0
 10
-384.9999999999999
 20
700.5
 30
-88.99999999999994
 70
   192
  0
VERTEX
  5
27C3
  8
0
 10
-402.9999999999999
 20
700.5
 30
-88.99999999999996
 70
   192
  0
VERTEX
  5
27C4
  8
0
 10
-402.9999999999999
 20
-0.5
 30
-88.99999999999996
 70
   192
  0
VERTEX
  5
27C5
  8
0
 10
0.0
 20
0.0
 30
0.0
 70
   128
 71
     1
 72
     4
 73
    -3
  0
VERTEX
  5
27C6
  8
0
 10
0.0
 20
0.0
 30
0.0
 70
   128
 71
    -1
 72
     3
 73
     2
  0
SEQEND
  5
2F5D
  8
0
  0
POLYLINE
  5
27C7
  8
0
 66
     1
 10
0.0
 20
0.0
 30
0.0
 70
    64
 71
     4
 72
     2
  0
VERTEX
  5
27C8
  8
0
 10
-402.9999999999999
 20
700.5
 30
-88.99999999999996
 70
   192
  0
VERTEX
  5
27C9
  8
0
 10
-402.9999999999999
 20
700.5
 30
62.00000000000007
 70
   192
  0
VERTEX
  5
27CA
  8
0
 10
-384.9999999999999
 20
700.5
 30
62.00000000000006
 70
   192
  0
VERTEX
  5
27CB
  8
0
 10
-385.0
 20
700.5
 30
-88.99999999999994
 70
   192
  0
VERTEX
  5
27CC
  8
0
 10
0.0
 20
0.0
 30
0.0
 70
   128
 71
     3
 72
     4
 73
    -1
  0
VERTEX
  5
27CD
  8
0
 10
0.0
 20
0.0
 30
0.0
 70
   128
 71
     2
 72
    -3
 73
     1
  0
SEQEND
  5
2F5E
  8
0
  0
POLYLINE
  5
27CE
  8
0
 66
     1
 10
0.0
 20
0.0
 30
0.0
 70
    64
 71
     4
 72
     2
  0
VERTEX
  5
27CF
  8
0
 10
-402.9999999999999
 20
-0.5
 30
62.00000000000006
 70
   192
  0
VERTEX
  5
27D0
  8
0
 10
-384.9999999999999
 20
-0.5
 30
62.00000000000006
 70
   192
  0
VERTEX
  5
27D1
  8
0
 10
-384.9999999999999
 20
-0.5
 30
-88.99999999999994
 70
   192
  0
VERTEX
  5
27D2
  8
0
 10
-402.9999999999999
 20
-0.5
 30
-88.99999999999996
 70
   192
  0
VERTEX
  5
27D3
  8
0
 10
0.0
 20
0.0
 30
0.0
 70
   128
 71
     1
 72
     4
 73
    -3
  0
VERTEX
  5
27D4
  8
0
 10
0.0
 20
0.0
 30
0.0
 70
   128
 71
    -1
 72
     3
 73
     2
  0
SEQEND
  5
2F5F
  8
0
  0
ENDBLK
  5
2F59
  8
0
  0
BLOCK
  8
0
  2
*X3
 70
     1
 10
0.0
 20
0.0
 30
0.0
  3
*X3
  1

  0
POLYLINE
  5
27D6
  8
0
 66
     1
 10
0.0
 20
0.0
 30
0.0
 70
    64
 71
     4
 72
     2
  0
VERTEX
  5
27D7
  8
0
 10
385.0
 20
-0.5
 30
-89.00000000000004
 70
   192
  0
VERTEX
  5
27D8
  8
0
 10
384.9999999999999
 20
-0.5
 30
61.99999999999996
 70
   192
  0
VERTEX
  5
27D9
  8
0
 10
384.9999999999999
 20
700.5
 30
61.99999999999996
 70
   192
  0
VERTEX
  5
27DA
  8
0
 10
385.0
 20
700.5
 30
-89.00000000000004
 70
   192
  0
VERTEX
  5
27DB
  8
0
 10
0.0
 20
0.0
 30
0.0
 70
   128
 71
     3
 72
     4
 73
    -1
  0
VERTEX
  5
27DC
  8
0
 10
0.0
 20
0.0
 30
0.0
 70
   128
 71
     2
 72
    -3
 73
     1
  0
SEQEND
  5
2F62
  8
0
  0
POLYLINE
  5
27DD
  8
0
 66
     1
 10
0.0
 20
0.0
 30
0.0
 70
    64
 71
     4
 72
     2
  0
VERTEX
  5
27DE
  8
0
 10
384.9999999999999
 20
-0.5
 30
61.99999999999996
 70
   192
  0
VERTEX
  5
27DF
  8
0
 10
384.9999999999999
 20
700.5
 30
61.99999999999996
 70
   192
  0
VERTEX
  5
27E0
  8
0
 10
402.9999999999999
 20
700.5
 30
61.99999999999996
 70
   192
  0
VERTEX
  5
27E1
  8
0
 10
402.9999999999999
 20
-0.5
 30
61.99999999999996
 70
   192
  0
VERTEX
  5
27E2
  8
0
 10
0.0
 20
0.0
 30
0.0
 70
   128
 71
     1
 72
     4
 73
    -3
  0
VERTEX
  5
27E3
  8
0
 10
0.0
 20
0.0
 30
0.0
 70
   128
 71
    -1
 72
     3
 73
     2
  0
SEQEND
  5
2F63
  8
0
  0
POLYLINE
  5
27E4
  8
0
 66
     1
 10
0.0
 20
0.0
 30
0.0
 70
    64
 71
     4
 72
     2
  0
VERTEX
  5
27E5
  8
0
 10
402.9999999999999
 20
-0.5
 30
61.99999999999996
 70
   192
  0
VERTEX
  5
27E6
  8
0
 10
402.9999999999999
 20
-0.5
 30
-89.00000000000006
 70
   192
  0
VERTEX
  5
27E7
  8
0
 10
402.9999999999999
 20
700.5
 30
-89.00000000000006
 70
   192
  0
VERTEX
  5
27E8
  8
0
 10
402.9999999999999
 20
700.5
 30
61.99999999999996
 70
   192
  0
VERTEX
  5
27E9
  8
0
 10
0.0
 20
0.0
 30
0.0
 70
   128
 71
     3
 72
     4
 73
    -1
  0
VERTEX
  5
27EA
  8
0
 10
0.0
 20
0.0
 30
0.0
 70
   128
 71
     2
 72
    -3
 73
     1
  0
SEQEND
  5
2F64
  8
0
  0
POLYLINE
  5
27EB
  8
0
 66
     1
 10
0.0
 20
0.0
 30
0.0
 70
    64
 71
     4
 72
     2
  0
VERTEX
  5
27EC
  8
0
 10
402.9999999999999
 20
-0.5
 30
-89.00000000000006
 70
   192
  0
VERTEX
  5
27ED
  8
0
 10
384.9999999999999
 20
-0.5
 30
-89.00000000000004
 70
   192
  0
VERTEX
  5
27EE
  8
0
 10
384.9999999999999
 20
700.5
 30
-89.00000000000004
 70
   192
  0
VERTEX
  5
27EF
  8
0
 10
402.9999999999999
 20
700.5
 30
-89.00000000000006
 70
   192
  0
VERTEX
  5
27F0
  8
0
 10
0.0
 20
0.0
 30
0.0
 70
   128
 71
     3
 72
     4
 73
    -1
  0
VERTEX
  5
27F1
  8
0
 10
0.0
 20
0.0
 30
0.0
 70
   128
 71
     2
 72
    -3
 73
     1
  0
SEQEND
  5
2F65
  8
0
  0
POLYLINE
  5
27F2
  8
0
 66
     1
 10
0.0
 20
0.0
 30
0.0
 70
    64
 71
     4
 72
     2
  0
VERTEX
  5
27F3
  8
0
 10
385.0
 20
700.5
 30
-89.00000000000004
 70
   192
  0
VERTEX
  5
27F4
  8
0
 10
384.9999999999999
 20
700.5
 30
61.99999999999996
 70
   192
  0
VERTEX
  5
27F5
  8
0
 10
402.9999999999999
 20
700.5
 30
61.99999999999996
 70
   192
  0
VERTEX
  5
27F6
  8
0
 10
402.9999999999999
 20
700.5
 30
-89.00000000000006
 70
   192
  0
VERTEX
  5
27F7
  8
0
 10
0.0
 20
0.0
 30
0.0
 70
   128
 71
     3
 72
     4
 73
    -1
  0
VERTEX
  5
27F8
  8
0
 10
0.0
 20
0.0
 30
0.0
 70
   128
 71
     2
 72
    -3
 73
     1
  0
SEQEND
  5
2F66
  8
0
  0
POLYLINE
  5
27F9
  8
0
 66
     1
 10
0.0
 20
0.0
 30
0.0
 70
    64
 71
     4
 72
     2
  0
VERTEX
  5
27FA
  8
0
 10
384.9999999999999
 20
-0.5
 30
61.99999999999996
 70
   192
  0
VERTEX
  5
27FB
  8
0
 10
402.9999999999999
 20
-0.5
 30
61.99999999999996
 70
   192
  0
VERTEX
  5
27FC
  8
0
 10
402.9999999999999
 20
-0.5
 30
-89.00000000000006
 70
   192
  0
VERTEX
  5
27FD
  8
0
 10
385.0
 20
-0.5
 30
-89.00000000000004
 70
   192
  0
VERTEX
  5
27FE
  8
0
 10
0.0
 20
0.0
 30
0.0
 70
   128
 71
     1
 72
     4
 73
    -3
  0
VERTEX
  5
27FF
  8
0
 10
0.0
 20
0.0
 30
0.0
 70
   128
 71
    -1
 72
     3
 73
     2
  0
SEQEND
  5
2F67
  8
0
  0
ENDBLK
  5
2F61
  8
0
  0
BLOCK
  8
0
  2
*X4
 70
     1
 10
0.0
 20
0.0
 30
0.0
  3
*X4
  1

  0
POLYLINE
  5
2801
  8
0
 66
     1
 10
0.0
 20
0.0
 30
0.0
 70
    64
 71
     4
 72
     2
  0
VERTEX
  5
2802
  8
0
 10
-402.9999999999999
 20
-0.5
 30
-88.99999999999996
 70
   192
  0
VERTEX
  5
2803
  8
0
 10
-402.9999999999999
 20
700.5
 30
-88.99999999999996
 70
   192
  0
VERTEX
  5
2804
  8
0
 10
-427.9999999999999
 20
700.5
 30
-88.99999999999996
 70
   192
  0
VERTEX
  5
2805
  8
0
 10
-427.9999999999999
 20
-0.5
 30
-88.99999999999996
 70
   192
  0
VERTEX
  5
2806
  8
0
 10
0.0
 20
0.0
 30
0.0
 70
   128
 71
     1
 72
     4
 73
    -3
  0
VERTEX
  5
2807
  8
0
 10
0.0
 20
0.0
 30
0.0
 70
   128
 71
    -1
 72
     3
 73
     2
  0
SEQEND
  5
2F6A
  8
0
  0
POLYLINE
  5
2808
  8
0
 66
     1
 10
0.0
 20
0.0
 30
0.0
 70
    64
 71
     4
 72
     2
  0
VERTEX
  5
2809
  8
0
 10
-427.9999999999999
 20
-0.5
 30
-88.99999999999996
 70
   192
  0
VERTEX
  5
280A
  8
0
 10
-427.9999999999999
 20
700.5
 30
-88.99999999999996
 70
   192
  0
VERTEX
  5
280B
  8
0
 10
-427.9999999999999
 20
700.5
 30
57.00000000000003
 70
   192
  0
VERTEX
  5
280C
  8
0
 10
-427.9999999999999
 20
-0.5
 30
57.00000000000003
 70
   192
  0
VERTEX
  5
280D
  8
0
 10
0.0
 20
0.0
 30
0.0
 70
   128
 71
     1
 72
     4
 73
    -3
  0
VERTEX
  5
280E
  8
0
 10
0.0
 20
0.0
 30
0.0
 70
   128
 71
    -1
 72
     3
 73
     2
  0
SEQEND
  5
2F6B
  8
0
  0
POLYLINE
  5
280F
  8
0
 66
     1
 10
0.0
 20
0.0
 30
0.0
 70
    64
 71
     8
 72
     6
  0
VERTEX
  5
2810
  8
0
 10
-415.4999999999999
 20
-0.5
 30
78.65063509461098
 70
   192
  0
VERTEX
  5
2811
  8
0
 10
-415.4999999999999
 20
700.5
 30
78.65063509461098
 70
   192
  0
VERTEX
  5
2812
  8
0
 10
-424.6506350946108
 20
700.5
 30
69.50000000000003
 70
   192
  0
VERTEX
  5
2813
  8
0
 10
-424.6506350946108
 20
-0.5
 30
69.50000000000003
 70
   192
  0
VERTEX
  5
2814
  8
0
 10
-402.9999999999999
 20
-0.5
 30
82.00000000000001
 70
   192
  0
VERTEX
  5
2815
  8
0
 10
-402.9999999999999
 20
700.5
 30
82.00000000000003
 70
   192
  0
VERTEX
  5
2816
  8
0
 10
-427.9999999999999
 20
700.5
 30
57.00000000000003
 70
   192
  0
VERTEX
  5
2817
  8
0
 10
-427.9999999999999
 20
-0.5
 30
57.00000000000003
 70
   192
  0
VERTEX
  5
2818
  8
0
 10
0.0
 20
0.0
 30
0.0
 70
   128
 71
     1
 72
     2
 73
    -3
  0
VERTEX
  5
2819
  8
0
 10
0.0
 20
0.0
 30
0.0
 70
   128
 71
    -1
 72
     3
 73
     4
  0
VERTEX
  5
281A
  8
0
 10
0.0
 20
0.0
 30
0.0
 70
   128
 71
     5
 72
     6
 73
    -2
  0
VERTEX
  5
281B
  8
0
 10
0.0
 20
0.0
 30
0.0
 70
   128
 71
    -5
 72
     2
 73
     1
  0
VERTEX
  5
281C
  8
0
 10
0.0
 20
0.0
 30
0.0
 70
   128
 71
     4
 72
     3
 73
    -7
  0
VERTEX
  5
281D
  8
0
 10
0.0
 20
0.0
 30
0.0
 70
   128
 71
    -4
 72
     7
 73
     8
  0
SEQEND
  5
2F6C
  8
0
  0
POLYLINE
  5
281E
  8
0
 66
     1
 10
0.0
 20
0.0
 30
0.0
 70
    64
 71
     4
 72
     2
  0
VERTEX
  5
281F
  8
0
 10
-402.9999999999999
 20
-0.5
 30
82.00000000000003
 70
   192
  0
VERTEX
  5
2820
  8
0
 10
-402.9999999999999
 20
-0.5
 30
-88.99999999999996
 70
   192
  0
VERTEX
  5
2821
  8
0
 10
-402.9999999999999
 20
700.5
 30
-88.99999999999996
 70
   192
  0
VERTEX
  5
2822
  8
0
 10
-402.9999999999999
 20
700.5
 30
82.00000000000003
 70
   192
  0
VERTEX
  5
2823
  8
0
 10
0.0
 20
0.0
 30
0.0
 70
   128
 71
     3
 72
     4
 73
    -1
  0
VERTEX
  5
2824
  8
0
 10
0.0
 20
0.0
 30
0.0
 70
   128
 71
     2
 72
    -3
 73
     1
  0
SEQEND
  5
2F6D
  8
0
  0
POLYLINE
  5
2825
  8
0
 66
     1
 10
0.0
 20
0.0
 30
0.0
 70
    64
 71
     6
 72
     4
  0
VERTEX
  5
2826
  8
0
 10
-402.9999999999999
 20
700.5
 30
-88.99999999999996
 70
   192
  0
VERTEX
  5
2827
  8
0
 10
-427.9999999999999
 20
700.5
 30
-88.99999999999996
 70
   192
  0
VERTEX
  5
2828
  8
0
 10
-427.9999999999999
 20
700.5
 30
57.00000000000003
 70
   192
  0
VERTEX
  5
2829
  8
0
 10
-424.6506350946108
 20
700.5
 30
69.50000000000003
 70
   192
  0
VERTEX
  5
282A
  8
0
 10
-415.4999999999999
 20
700.5
 30
78.65063509461098
 70
   192
  0
VERTEX
  5
282B
  8
0
 10
-402.9999999999999
 20
700.5
 30
82.00000000000001
 70
   192
  0
VERTEX
  5
282C
  8
0
 10
0.0
 20
0.0
 30
0.0
 70
   128
 71
     5
 72
     6
 73
    -1
  0
VERTEX
  5
282D
  8
0
 10
0.0
 20
0.0
 30
0.0
 70
   128
 71
     4
 72
    -5
 73
    -1
  0
VERTEX
  5
282E
  8
0
 10
0.0
 20
0.0
 30
0.0
 70
   128
 71
     3
 72
    -4
 73
    -1
  0
VERTEX
  5
282F
  8
0
 10
0.0
 20
0.0
 30
0.0
 70
   128
 71
     2
 72
    -3
 73
     1
  0
SEQEND
  5
2F6E
  8
0
  0
POLYLINE
  5
2830
  8
0
 66
     1
 10
0.0
 20
0.0
 30
0.0
 70
    64
 71
     6
 72
     4
  0
VERTEX
  5
2831
  8
0
 10
-427.9999999999999
 20
-0.5
 30
-88.99999999999996
 70
   192
  0
VERTEX
  5
2832
  8
0
 10
-427.9999999999999
 20
-0.5
 30
57.00000000000003
 70
   192
  0
VERTEX
  5
2833
  8
0
 10
-424.6506350946108
 20
-0.5
 30
69.50000000000003
 70
   192
  0
VERTEX
  5
2834
  8
0
 10
-415.4999999999999
 20
-0.5
 30
78.65063509461098
 70
   192
  0
VERTEX
  5
2835
  8
0
 10
-402.9999999999999
 20
-0.5
 30
82.00000000000003
 70
   192
  0
VERTEX
  5
2836
  8
0
 10
-402.9999999999999
 20
-0.5
 30
-88.99999999999996
 70
   192
  0
VERTEX
  5
2837
  8
0
 10
0.0
 20
0.0
 30
0.0
 70
   128
 71
     1
 72
     6
 73
    -5
  0
VERTEX
  5
2838
  8
0
 10
0.0
 20
0.0
 30
0.0
 70
   128
 71
    -1
 72
     5
 73
    -4
  0
VERTEX
  5
2839
  8
0
 10
0.0
 20
0.0
 30
0.0
 70
   128
 71
    -1
 72
     4
 73
    -3
  0
VERTEX
  5
283A
  8
0
 10
0.0
 20
0.0
 30
0.0
 70
   128
 71
    -1
 72
     3
 73
     2
  0
SEQEND
  5
2F6F
  8
0
  0
ENDBLK
  5
2F69
  8
0
  0
BLOCK
  8
0
  2
*X5
 70
     1
 10
0.0
 20
0.0
 30
0.0
  3
*X5
  1

  0
POLYLINE
  5
283C
  8
0
 66
     1
 10
0.0
 20
0.0
 30
0.0
 70
    64
 71
     4
 72
     2
  0
VERTEX
  5
283D
  8
0
 10
427.9999999999999
 20
-0.5
 30
-89.00000000000007
 70
   192
  0
VERTEX
  5
283E
  8
0
 10
402.9999999999999
 20
-0.5
 30
-89.00000000000006
 70
   192
  0
VERTEX
  5
283F
  8
0
 10
402.9999999999999
 20
700.5
 30
-89.00000000000006
 70
   192
  0
VERTEX
  5
2840
  8
0
 10
427.9999999999999
 20
700.5
 30
-89.00000000000007
 70
   192
  0
VERTEX
  5
2841
  8
0
 10
0.0
 20
0.0
 30
0.0
 70
   128
 71
     3
 72
     4
 73
    -1
  0
VERTEX
  5
2842
  8
0
 10
0.0
 20
0.0
 30
0.0
 70
   128
 71
     2
 72
    -3
 73
     1
  0
SEQEND
  5
2F72
  8
0
  0
POLYLINE
  5
2843
  8
0
 66
     1
 10
0.0
 20
0.0
 30
0.0
 70
    64
 71
     4
 72
     2
  0
VERTEX
  5
2844
  8
0
 10
402.9999999999999
 20
-0.5
 30
-89.00000000000006
 70
   192
  0
VERTEX
  5
2845
  8
0
 10
402.9999999999999
 20
700.5
 30
-89.00000000000006
 70
   192
  0
VERTEX
  5
2846
  8
0
 10
402.9999999999999
 20
700.5
 30
81.99999999999993
 70
   192
  0
VERTEX
  5
2847
  8
0
 10
402.9999999999999
 20
-0.5
 30
81.99999999999993
 70
   192
  0
VERTEX
  5
2848
  8
0
 10
0.0
 20
0.0
 30
0.0
 70
   128
 71
     1
 72
     4
 73
    -3
  0
VERTEX
  5
2849
  8
0
 10
0.0
 20
0.0
 30
0.0
 70
   128
 71
    -1
 72
     3
 73
     2
  0
SEQEND
  5
2F73
  8
0
  0
POLYLINE
  5
284A
  8
0
 66
     1
 10
0.0
 20
0.0
 30
0.0
 70
    64
 71
     8
 72
     6
  0
VERTEX
  5
284B
  8
0
 10
424.6506350946108
 20
-0.5
 30
69.49999999999994
 70
   192
  0
VERTEX
  5
284C
  8
0
 10
424.6506350946108
 20
700.5
 30
69.49999999999994
 70
   192
  0
VERTEX
  5
284D
  8
0
 10
415.4999999999999
 20
700.5
 30
78.6506350946109
 70
   192
  0
VERTEX
  5
284E
  8
0
 10
415.4999999999999
 20
-0.5
 30
78.6506350946109
 70
   192
  0
VERTEX
  5
284F
  8
0
 10
427.9999999999999
 20
-0.5
 30
56.99999999999994
 70
   192
  0
VERTEX
  5
2850
  8
0
 10
427.9999999999999
 20
700.5
 30
56.99999999999994
 70
   192
  0
VERTEX
  5
2851
  8
0
 10
402.9999999999999
 20
700.5
 30
81.99999999999994
 70
   192
  0
VERTEX
  5
2852
  8
0
 10
402.9999999999999
 20
-0.5
 30
81.99999999999993
 70
   192
  0
VERTEX
  5
2853
  8
0
 10
0.0
 20
0.0
 30
0.0
 70
   128
 71
     1
 72
     2
 73
    -3
  0
VERTEX
  5
2854
  8
0
 10
0.0
 20
0.0
 30
0.0
 70
   128
 71
    -1
 72
     3
 73
     4
  0
VERTEX
  5
2855
  8
0
 10
0.0
 20
0.0
 30
0.0
 70
   128
 71
     5
 72
     6
 73
    -2
  0
VERTEX
  5
2856
  8
0
 10
0.0
 20
0.0
 30
0.0
 70
   128
 71
    -5
 72
     2
 73
     1
  0
VERTEX
  5
2857
  8
0
 10
0.0
 20
0.0
 30
0.0
 70
   128
 71
     4
 72
     3
 73
    -7
  0
VERTEX
  5
2858
  8
0
 10
0.0
 20
0.0
 30
0.0
 70
   128
 71
    -4
 72
     7
 73
     8
  0
SEQEND
  5
2F74
  8
0
  0
POLYLINE
  5
2859
  8
0
 66
     1
 10
0.0
 20
0.0
 30
0.0
 70
    64
 71
     4
 72
     2
  0
VERTEX
  5
285A
  8
0
 10
427.9999999999999
 20
-0.5
 30
56.99999999999994
 70
   192
  0
VERTEX
  5
285B
  8
0
 10
427.9999999999999
 20
-0.5
 30
-89.00000000000007
 70
   192
  0
VERTEX
  5
285C
  8
0
 10
427.9999999999999
 20
700.5
 30
-89.00000000000007
 70
   192
  0
VERTEX
  5
285D
  8
0
 10
427.9999999999999
 20
700.5
 30
56.99999999999994
 70
   192
  0
VERTEX
  5
285E
  8
0
 10
0.0
 20
0.0
 30
0.0
 70
   128
 71
     3
 72
     4
 73
    -1
  0
VERTEX
  5
285F
  8
0
 10
0.0
 20
0.0
 30
0.0
 70
   128
 71
     2
 72
    -3
 73
     1
  0
SEQEND
  5
2F75
  8
0
  0
POLYLINE
  5
2860
  8
0
 66
     1
 10
0.0
 20
0.0
 30
0.0
 70
    64
 71
     6
 72
     4
  0
VERTEX
  5
2861
  8
0
 10
427.9999999999999
 20
700.5
 30
-89.00000000000007
 70
   192
  0
VERTEX
  5
2862
  8
0
 10
402.9999999999999
 20
700.5
 30
-89.00000000000006
 70
   192
  0
VERTEX
  5
2863
  8
0
 10
402.9999999999999
 20
700.5
 30
81.99999999999993
 70
   192
  0
VERTEX
  5
2864
  8
0
 10
415.4999999999999
 20
700.5
 30
78.6506350946109
 70
   192
  0
VERTEX
  5
2865
  8
0
 10
424.6506350946108
 20
700.5
 30
69.49999999999994
 70
   192
  0
VERTEX
  5
2866
  8
0
 10
427.9999999999999
 20
700.5
 30
56.99999999999994
 70
   192
  0
VERTEX
  5
2867
  8
0
 10
0.0
 20
0.0
 30
0.0
 70
   128
 71
     5
 72
     6
 73
    -1
  0
VERTEX
  5
2868
  8
0
 10
0.0
 20
0.0
 30
0.0
 70
   128
 71
     4
 72
    -5
 73
    -1
  0
VERTEX
  5
2869
  8
0
 10
0.0
 20
0.0
 30
0.0
 70
   128
 71
     3
 72
    -4
 73
    -1
  0
VERTEX
  5
286A
  8
0
 10
0.0
 20
0.0
 30
0.0
 70
   128
 71
     2
 72
    -3
 73
     1
  0
SEQEND
  5
2F76
  8
0
  0
POLYLINE
  5
286B
  8
0
 66
     1
 10
0.0
 20
0.0
 30
0.0
 70
    64
 71
     6
 72
     4
  0
VERTEX
  5
286C
  8
0
 10
402.9999999999999
 20
-0.5
 30
-89.00000000000006
 70
   192
  0
VERTEX
  5
286D
  8
0
 10
402.9999999999999
 20
-0.5
 30
81.99999999999994
 70
   192
  0
VERTEX
  5
286E
  8
0
 10
415.4999999999999
 20
-0.5
 30
78.6506350946109
 70
   192
  0
VERTEX
  5
286F
  8
0
 10
424.6506350946108
 20
-0.5
 30
69.49999999999994
 70
   192
  0
VERTEX
  5
2870
  8
0
 10
427.9999999999999
 20
-0.5
 30
56.99999999999994
 70
   192
  0
VERTEX
  5
2871
  8
0
 10
427.9999999999999
 20
-0.5
 30
-89.00000000000007
 70
   192
  0
VERTEX
  5
2872
  8
0
 10
0.0
 20
0.0
 30
0.0
 70
   128
 71
     1
 72
     6
 73
    -5
  0
VERTEX
  5
2873
  8
0
 10
0.0
 20
0.0
 30
0.0
 70
   128
 71
    -1
 72
     5
 73
    -4
  0
VERTEX
  5
2874
  8
0
 10
0.0
 20
0.0
 30
0.0
 70
   128
 71
    -1
 72
     4
 73
    -3
  0
VERTEX
  5
2875
  8
0
 10
0.0
 20
0.0
 30
0.0
 70
   128
 71
    -1
 72
     3
 73
     2
  0
SEQEND
  5
2F77
  8
0
  0
ENDBLK
  5
2F71
  8
0
  0
BLOCK
  8
0
  2
*X6
 70
     1
 10
0.0
 20
0.0
 30
0.0
  3
*X6
  1

  0
POLYLINE
  5
2877
  8
0
 66
     1
 10
0.0
 20
0.0
 30
0.0
 70
    64
 71
     4
 72
     2
  0
VERTEX
  5
2878
  8
0
 10
385.0
 20
682.0
 30
-61.99999999999977
 70
   192
  0
VERTEX
  5
2879
  8
0
 10
384.9999999999999
 20
682.0
 30
62.00000000000023
 70
   192
  0
VERTEX
  5
287A
  8
0
 10
384.9999999999999
 20
700.0000000000001
 30
62.00000000000023
 70
   192
  0
VERTEX
  5
287B
  8
0
 10
385.0
 20
700.0000000000001
 30
-61.99999999999977
 70
   192
  0
VERTEX
  5
287C
  8
0
 10
0.0
 20
0.0
 30
0.0
 70
   128
 71
     1
 72
     4
 73
    -3
  0
VERTEX
  5
287D
  8
0
 10
0.0
 20
0.0
 30
0.0
 70
   128
 71
    -1
 72
     3
 73
     2
  0
SEQEND
  5
2F7A
  8
0
  0
POLYLINE
  5
287E
  8
0
 66
     1
 10
0.0
 20
0.0
 30
0.0
 70
    64
 71
     4
 72
     2
  0
VERTEX
  5
287F
  8
0
 10
-384.9999999999999
 20
700.0000000000001
 30
62.00000000000023
 70
   192
  0
VERTEX
  5
2880
  8
0
 10
-384.9999999999999
 20
700.0000000000001
 30
-61.99999999999977
 70
   192
  0
VERTEX
  5
2881
  8
0
 10
385.0
 20
700.0000000000001
 30
-61.99999999999977
 70
   192
  0
VERTEX
  5
2882
  8
0
 10
384.9999999999999
 20
700.0000000000001
 30
62.00000000000023
 70
   192
  0
VERTEX
  5
2883
  8
0
 10
0.0
 20
0.0
 30
0.0
 70
   128
 71
     1
 72
     4
 73
    -3
  0
VERTEX
  5
2884
  8
0
 10
0.0
 20
0.0
 30
0.0
 70
   128
 71
    -1
 72
     3
 73
     2
  0
SEQEND
  5
2F7B
  8
0
  0
POLYLINE
  5
2885
  8
0
 66
     1
 10
0.0
 20
0.0
 30
0.0
 70
    64
 71
     4
 72
     2
  0
VERTEX
  5
2886
  8
0
 10
-384.9999999999999
 20
682.0
 30
62.00000000000023
 70
   192
  0
VERTEX
  5
2887
  8
0
 10
-384.9999999999999
 20
700.0000000000001
 30
62.00000000000023
 70
   192
  0
VERTEX
  5
2888
  8
0
 10
384.9999999999999
 20
700.0000000000001
 30
62.00000000000023
 70
   192
  0
VERTEX
  5
2889
  8
0
 10
384.9999999999999
 20
682.0
 30
62.00000000000023
 70
   192
  0
VERTEX
  5
288A
  8
0
 10
0.0
 20
0.0
 30
0.0
 70
   128
 71
     1
 72
     4
 73
    -3
  0
VERTEX
  5
288B
  8
0
 10
0.0
 20
0.0
 30
0.0
 70
   128
 71
    -1
 72
     3
 73
     2
  0
SEQEND
  5
2F7C
  8
0
  0
POLYLINE
  5
288C
  8
0
 66
     1
 10
0.0
 20
0.0
 30
0.0
 70
    64
 71
     4
 72
     2
  0
VERTEX
  5
288D
  8
0
 10
-384.9999999999999
 20
700.0000000000001
 30
-61.99999999999977
 70
   192
  0
VERTEX
  5
288E
  8
0
 10
-384.9999999999999
 20
682.0
 30
-61.99999999999977
 70
   192
  0
VERTEX
  5
288F
  8
0
 10
385.0
 20
682.0
 30
-61.99999999999977
 70
   192
  0
VERTEX
  5
2890
  8
0
 10
384.9999999999999
 20
700.0000000000001
 30
-61.99999999999977
 70
   192
  0
VERTEX
  5
2891
  8
0
 10
0.0
 20
0.0
 30
0.0
 70
   128
 71
     1
 72
     4
 73
    -3
  0
VERTEX
  5
2892
  8
0
 10
0.0
 20
0.0
 30
0.0
 70
   128
 71
    -1
 72
     3
 73
     2
  0
SEQEND
  5
2F7D
  8
0
  0
POLYLINE
  5
2893
  8
0
 66
     1
 10
0.0
 20
0.0
 30
0.0
 70
    64
 71
     4
 72
     2
  0
VERTEX
  5
2894
  8
0
 10
-384.9999999999999
 20
682.0
 30
62.00000000000023
 70
   192
  0
VERTEX
  5
2895
  8
0
 10
-384.9999999999999
 20
682.0
 30
-61.99999999999977
 70
   192
  0
VERTEX
  5
2896
  8
0
 10
-384.9999999999999
 20
700.0000000000001
 30
-61.99999999999977
 70
   192
  0
VERTEX
  5
2897
  8
0
 10
-384.9999999999999
 20
700.0000000000001
 30
62.00000000000023
 70
   192
  0
VERTEX
  5
2898
  8
0
 10
0.0
 20
0.0
 30
0.0
 70
   128
 71
     1
 72
     4
 73
    -3
  0
VERTEX
  5
2899
  8
0
 10
0.0
 20
0.0
 30
0.0
 70
   128
 71
    -1
 72
     3
 73
     2
  0
SEQEND
  5
2F7E
  8
0
  0
POLYLINE
  5
289A
  8
0
 66
     1
 10
0.0
 20
0.0
 30
0.0
 70
    64
 71
     4
 72
     2
  0
VERTEX
  5
289B
  8
0
 10
-384.9999999999999
 20
682.0
 30
-61.99999999999977
 70
   192
  0
VERTEX
  5
289C
  8
0
 10
-384.9999999999999
 20
682.0
 30
62.00000000000023
 70
   192
  0
VERTEX
  5
289D
  8
0
 10
384.9999999999999
 20
682.0
 30
62.00000000000023
 70
   192
  0
VERTEX
  5
289E
  8
0
 10
385.0
 20
682.0
 30
-61.99999999999977
 70
   192
  0
VERTEX
  5
289F
  8
0
 10
0.0
 20
0.0
 30
0.0
 70
   128
 71
     1
 72
     4
 73
    -3
  0
VERTEX
  5
28A0
  8
0
 10
0.0
 20
0.0
 30
0.0
 70
   128
 71
    -1
 72
     3
 73
     2
  0
SEQEND
  5
2F7F
  8
0
  0
ENDBLK
  5
2F79
  8
0
  0
BLOCK
  8
0
  2
*X7
 70
     1
 10
0.0
 20
0.0
 30
0.0
  3
*X7
  1

  0
POLYLINE
  5
28A2
  8
0
 66
     1
 10
0.0
 20
0.0
 30
0.0
 70
    64
 71
     4
 72
     2
  0
VERTEX
  5
28A3
  8
0
 10
9.000000000000002
 20
18.0
 30
-44.0000000000001
 70
   192
  0
VERTEX
  5
28A4
  8
0
 10
9.000000000000002
 20
138.0
 30
-44.0000000000001
 70
   192
  0
VERTEX
  5
28A5
  8
0
 10
384.9999999999998
 20
138.0
 30
-44.00000000000009
 70
   192
  0
VERTEX
  5
28A6
  8
0
 10
384.9999999999998
 20
18.0
 30
-44.00000000000009
 70
   192
  0
VERTEX
  5
28A7
  8
0
 10
0.0
 20
0.0
 30
0.0
 70
   128
 71
     1
 72
     4
 73
    -3
  0
VERTEX
  5
28A8
  8
0
 10
0.0
 20
0.0
 30
0.0
 70
   128
 71
    -1
 72
     3
 73
     2
  0
SEQEND
  5
2F82
  8
0
  0
POLYLINE
  5
28A9
  8
0
 66
     1
 10
0.0
 20
0.0
 30
0.0
 70
    64
 71
     4
 72
     2
  0
VERTEX
  5
28AA
  8
0
 10
384.9999999999998
 20
18.0
 30
-44.00000000000009
 70
   192
  0
VERTEX
  5
28AB
  8
0
 10
384.9999999999998
 20
138.0
 30
-44.00000000000009
 70
   192
  0
VERTEX
  5
28AC
  8
0
 10
384.9999999999999
 20
138.0
 30
-62.00000000000009
 70
   192
  0
VERTEX
  5
28AD
  8
0
 10
384.9999999999999
 20
18.0
 30
-62.00000000000009
 70
   192
  0
VERTEX
  5
28AE
  8
0
 10
0.0
 20
0.0
 30
0.0
 70
   128
 71
     1
 72
     4
 73
    -3
  0
VERTEX
  5
28AF
  8
0
 10
0.0
 20
0.0
 30
0.0
 70
   128
 71
    -1
 72
     3
 73
     2
  0
SEQEND
  5
2F83
  8
0
  0
POLYLINE
  5
28B0
  8
0
 66
     1
 10
0.0
 20
0.0
 30
0.0
 70
    64
 71
     4
 72
     2
  0
VERTEX
  5
28B1
  8
0
 10
384.9999999999999
 20
18.0
 30
-62.00000000000009
 70
   192
  0
VERTEX
  5
28B2
  8
0
 10
384.9999999999999
 20
138.0
 30
-62.00000000000009
 70
   192
  0
VERTEX
  5
28B3
  8
0
 10
9.000000000000002
 20
138.0
 30
-62.00000000000009
 70
   192
  0
VERTEX
  5
28B4
  8
0
 10
9.000000000000002
 20
18.0
 30
-62.00000000000009
 70
   192
  0
VERTEX
  5
28B5
  8
0
 10
0.0
 20
0.0
 30
0.0
 70
   128
 71
     1
 72
     4
 73
    -3
  0
VERTEX
  5
28B6
  8
0
 10
0.0
 20
0.0
 30
0.0
 70
   128
 71
    -1
 72
     3
 73
     2
  0
SEQEND
  5
2F84
  8
0
  0
POLYLINE
  5
28B7
  8
0
 66
     1
 10
0.0
 20
0.0
 30
0.0
 70
    64
 71
     4
 72
     2
  0
VERTEX
  5
28B8
  8
0
 10
9.000000000000002
 20
18.0
 30
-62.00000000000009
 70
   192
  0
VERTEX
  5
28B9
  8
0
 10
9.000000000000002
 20
138.0
 30
-62.00000000000009
 70
   192
  0
VERTEX
  5
28BA
  8
0
 10
9.000000000000002
 20
138.0
 30
-44.0000000000001
 70
   192
  0
VERTEX
  5
28BB
  8
0
 10
9.000000000000002
 20
18.0
 30
-44.0000000000001
 70
   192
  0
VERTEX
  5
28BC
  8
0
 10
0.0
 20
0.0
 30
0.0
 70
   128
 71
     1
 72
     4
 73
    -3
  0
VERTEX
  5
28BD
  8
0
 10
0.0
 20
0.0
 30
0.0
 70
   128
 71
    -1
 72
     3
 73
     2
  0
SEQEND
  5
2F85
  8
0
  0
POLYLINE
  5
28BE
  8
0
 66
     1
 10
0.0
 20
0.0
 30
0.0
 70
    64
 71
     4
 72
     2
  0
VERTEX
  5
28BF
  8
0
 10
9.000000000000002
 20
138.0
 30
-44.0000000000001
 70
   192
  0
VERTEX
  5
28C0
  8
0
 10
9.000000000000002
 20
138.0
 30
-62.00000000000009
 70
   192
  0
VERTEX
  5
28C1
  8
0
 10
384.9999999999999
 20
138.0
 30
-62.00000000000009
 70
   192
  0
VERTEX
  5
28C2
  8
0
 10
384.9999999999998
 20
138.0
 30
-44.00000000000009
 70
   192
  0
VERTEX
  5
28C3
  8
0
 10
0.0
 20
0.0
 30
0.0
 70
   128
 71
     1
 72
     4
 73
    -3
  0
VERTEX
  5
28C4
  8
0
 10
0.0
 20
0.0
 30
0.0
 70
   128
 71
    -1
 72
     3
 73
     2
  0
SEQEND
  5
2F86
  8
0
  0
POLYLINE
  5
28C5
  8
0
 66
     1
 10
0.0
 20
0.0
 30
0.0
 70
    64
 71
     4
 72
     2
  0
VERTEX
  5
28C6
  8
0
 10
384.9999999999998
 20
18.0
 30
-44.00000000000009
 70
   192
  0
VERTEX
  5
28C7
  8
0
 10
9.000000000000002
 20
18.0
 30
-44.0000000000001
 70
   192
  0
VERTEX
  5
28C8
  8
0
 10
9.000000000000002
 20
18.0
 30
-62.00000000000009
 70
   192
  0
VERTEX
  5
28C9
  8
0
 10
384.9999999999999
 20
18.0
 30
-62.00000000000009
 70
   192
  0
VERTEX
  5
28CA
  8
0
 10
0.0
 20
0.0
 30
0.0
 70
   128
 71
     3
 72
     4
 73
    -1
  0
VERTEX
  5
28CB
  8
0
 10
0.0
 20
0.0
 30
0.0
 70
   128
 71
     2
 72
    -3
 73
     1
  0
SEQEND
  5
2F87
  8
0
  0
ENDBLK
  5
2F81
  8
0
  0
BLOCK
  8
0
  2
*X8
 70
     1
 10
0.0
 20
0.0
 30
0.0
  3
*X8
  1

  0
POLYLINE
  5
28CD
  8
0
 66
     1
 10
0.0
 20
0.0
 30
0.0
 70
    64
 71
     4
 72
     2
  0
VERTEX
  5
28CE
  8
0
 10
-385.0
 20
700.5
 30
-64.99999999999987
 70
   192
  0
VERTEX
  5
28CF
  8
0
 10
-384.9999999999999
 20
700.5
 30
-61.99999999999994
 70
   192
  0
VERTEX
  5
28D0
  8
0
 10
385.0
 20
700.5
 30
-62.00000000000009
 70
   192
  0
VERTEX
  5
28D1
  8
0
 10
385.0
 20
700.5
 30
-64.99999999999996
 70
   192
  0
VERTEX
  5
28D2
  8
0
 10
0.0
 20
0.0
 30
0.0
 70
   128
 71
     3
 72
     4
 73
    -1
  0
VERTEX
  5
28D3
  8
0
 10
0.0
 20
0.0
 30
0.0
 70
   128
 71
     2
 72
    -3
 73
     1
  0
SEQEND
  5
2F8A
  8
0
  0
POLYLINE
  5
28D4
  8
0
 66
     1
 10
0.0
 20
0.0
 30
0.0
 70
    64
 71
     4
 72
     2
  0
VERTEX
  5
28D5
  8
0
 10
-384.9999999999999
 20
-0.5
 30
-61.99999999999994
 70
   192
  0
VERTEX
  5
28D6
  8
0
 10
-385.0
 20
-0.5
 30
-64.99999999999987
 70
   192
  0
VERTEX
  5
28D7
  8
0
 10
385.0
 20
-0.5
 30
-64.99999999999996
 70
   192
  0
VERTEX
  5
28D8
  8
0
 10
385.0
 20
-0.5
 30
-62.0000000000001
 70
   192
  0
VERTEX
  5
28D9
  8
0
 10
0.0
 20
0.0
 30
0.0
 70
   128
 71
     3
 72
     4
 73
    -1
  0
VERTEX
  5
28DA
  8
0
 10
0.0
 20
0.0
 30
0.0
 70
   128
 71
     2
 72
    -3
 73
     1
  0
SEQEND
  5
2F8B
  8
0
  0
POLYLINE
  5
28DB
  8
0
 66
     1
 10
0.0
 20
0.0
 30
0.0
 70
    64
 71
     4
 72
     2
  0
VERTEX
  5
28DC
  8
0
 10
-385.0
 20
-0.5
 30
-64.99999999999987
 70
   192
  0
VERTEX
  5
28DD
  8
0
 10
-385.0
 20
700.5000000000001
 30
-64.99999999999987
 70
   192
  0
VERTEX
  5
28DE
  8
0
 10
385.0
 20
700.5
 30
-64.99999999999996
 70
   192
  0
VERTEX
  5
28DF
  8
0
 10
385.0
 20
-0.5
 30
-64.99999999999996
 70
   192
  0
VERTEX
  5
28E0
  8
0
 10
0.0
 20
0.0
 30
0.0
 70
   128
 71
     3
 72
     4
 73
    -1
  0
VERTEX
  5
28E1
  8
0
 10
0.0
 20
0.0
 30
0.0
 70
   128
 71
     2
 72
    -3
 73
     1
  0
SEQEND
  5
2F8C
  8
0
  0
POLYLINE
  5
28E2
  8
0
 66
     1
 10
0.0
 20
0.0
 30
0.0
 70
    64
 71
     4
 72
     2
  0
VERTEX
  5
28E3
  8
0
 10
385.0
 20
700.5000000000003
 30
-64.99999999999996
 70
   192
  0
VERTEX
  5
28E4
  8
0
 10
385.0
 20
-0.5
 30
-64.99999999999996
 70
   192
  0
VERTEX
  5
28E5
  8
0
 10
385.0000000000001
 20
-0.5
 30
-62.00000000000009
 70
   192
  0
VERTEX
  5
28E6
  8
0
 10
385.0
 20
700.5
 30
-62.0000000000001
 70
   192
  0
VERTEX
  5
28E7
  8
0
 10
0.0
 20
0.0
 30
0.0
 70
   128
 71
     1
 72
     4
 73
    -3
  0
VERTEX
  5
28E8
  8
0
 10
0.0
 20
0.0
 30
0.0
 70
   128
 71
    -1
 72
     3
 73
     2
  0
SEQEND
  5
2F8D
  8
0
  0
POLYLINE
  5
28E9
  8
0
 66
     1
 10
0.0
 20
0.0
 30
0.0
 70
    64
 71
     4
 72
     2
  0
VERTEX
  5
28EA
  8
0
 10
385.0000000000001
 20
700.5000000000001
 30
-62.00000000000009
 70
   192
  0
VERTEX
  5
28EB
  8
0
 10
385.0000000000001
 20
-0.5
 30
-62.00000000000009
 70
   192
  0
VERTEX
  5
28EC
  8
0
 10
-384.9999999999999
 20
-0.5
 30
-61.99999999999994
 70
   192
  0
VERTEX
  5
28ED
  8
0
 10
-384.9999999999999
 20
700.5
 30
-61.99999999999994
 70
   192
  0
VERTEX
  5
28EE
  8
0
 10
0.0
 20
0.0
 30
0.0
 70
   128
 71
     1
 72
     4
 73
    -3
  0
VERTEX
  5
28EF
  8
0
 10
0.0
 20
0.0
 30
0.0
 70
   128
 71
    -1
 72
     3
 73
     2
  0
SEQEND
  5
2F8E
  8
0
  0
POLYLINE
  5
28F0
  8
0
 66
     1
 10
0.0
 20
0.0
 30
0.0
 70
    64
 71
     4
 72
     2
  0
VERTEX
  5
28F1
  8
0
 10
-384.9999999999999
 20
-0.5
 30
-61.99999999999994
 70
   192
  0
VERTEX
  5
28F2
  8
0
 10
-384.9999999999999
 20
700.5000000000001
 30
-61.99999999999994
 70
   192
  0
VERTEX
  5
28F3
  8
0
 10
-385.0
 20
700.5
 30
-64.99999999999987
 70
   192
  0
VERTEX
  5
28F4
  8
0
 10
-385.0
 20
-0.5
 30
-64.99999999999987
 70
   192
  0
VERTEX
  5
28F5
  8
0
 10
0.0
 20
0.0
 30
0.0
 70
   128
 71
     3
 72
     4
 73
    -1
  0
VERTEX
  5
28F6
  8
0
 10
0.0
 20
0.0
 30
0.0
 70
   128
 71
     2
 72
    -3
 73
     1
  0
SEQEND
  5
2F8F
  8
0
  0
ENDBLK
  5
2F89
  8
0
  0
BLOCK
  8
0
  2
*X9
 70
     1
 10
0.0
 20
0.0
 30
0.0
  3
*X9
  1

  0
POLYLINE
  5
28F8
  8
0
 66
     1
 10
0.0
 20
0.0
 30
0.0
 70
    64
 71
    10
 72
     8
  0
VERTEX
  5
28F9
  8
0
 10
272.9999999999999
 20
102.9999999999999
 30
-39.00000000000011
 70
   192
  0
VERTEX
  5
28FA
  8
0
 10
276.9999999999999
 20
102.9999999999999
 30
-39.00000000000011
 70
   192
  0
VERTEX
  5
28FB
  8
0
 10
276.9999999999999
 20
102.9999999999999
 30
-42.00000000000011
 70
   192
  0
VERTEX
  5
28FC
  8
0
 10
272.9999999999999
 20
102.9999999999999
 30
-42.00000000000011
 70
   192
  0
VERTEX
  5
28FD
  8
0
 10
274.9999999999999
 20
104.9999999999999
 30
-42.00000000000011
 70
   192
  0
VERTEX
  5
28FE
  8
0
 10
274.9999999999999
 20
104.9999999999999
 30
-39.00000000000011
 70
   192
  0
VERTEX
  5
28FF
  8
0
 10
273.5857864376268
 20
104.414213562373
 30
-42.00000000000011
 70
   192
  0
VERTEX
  5
2900
  8
0
 10
273.5857864376268
 20
104.414213562373
 30
-39.00000000000011
 70
   192
  0
VERTEX
  5
2901
  8
0
 10
276.414213562373
 20
104.414213562373
 30
-42.00000000000011
 70
   192
  0
VERTEX
  5
2902
  8
0
 10
276.414213562373
 20
104.414213562373
 30
-39.00000000000011
 70
   192
  0
VERTEX
  5
2903
  8
0
 10
0.0
 20
0.0
 30
0.0
 70
   128
 71
     7
 72
     4
 73
    -1
  0
VERTEX
  5
2904
  8
0
 10
0.0
 20
0.0
 30
0.0
 70
   128
 71
    -7
 72
     1
 73
     8
  0
VERTEX
  5
2905
  8
0
 10
0.0
 20
0.0
 30
0.0
 70
   128
 71
     6
 72
     5
 73
    -7
  0
VERTEX
  5
2906
  8
0
 10
0.0
 20
0.0
 30
0.0
 70
   128
 71
    -6
 72
     7
 73
     8
  0
VERTEX
  5
2907
  8
0
 10
0.0
 20
0.0
 30
0.0
 70
   128
 71
    10
 72
     9
 73
    -5
  0
VERTEX
  5
2908
  8
0
 10
0.0
 20
0.0
 30
0.0
 70
   128
 71
   -10
 72
     5
 73
     6
  0
VERTEX
  5
2909
  8
0
 10
0.0
 20
0.0
 30
0.0
 70
   128
 71
     2
 72
     3
 73
    -9
  0
VERTEX
  5
290A
  8
0
 10
0.0
 20
0.0
 30
0.0
 70
   128
 71
    -2
 72
     9
 73
    10
  0
SEQEND
  5
2F92
  8
0
  0
POLYLINE
  5
290B
  8
0
 66
     1
 10
0.0
 20
0.0
 30
0.0
 70
    64
 71
    10
 72
     8
  0
VERTEX
  5
290C
  8
0
 10
261.9999999999999
 20
87.99999999999994
 30
-43.00000000000011
 70
   192
  0
VERTEX
  5
290D
  8
0
 10
267.9999999999999
 20
87.99999999999994
 30
-43.00000000000011
 70
   192
  0
VERTEX
  5
290E
  8
0
 10
267.9999999999999
 20
87.99999999999994
 30
-42.00000000000011
 70
   192
  0
VERTEX
  5
290F
  8
0
 10
261.9999999999999
 20
87.99999999999994
 30
-42.00000000000011
 70
   192
  0
VERTEX
  5
2910
  8
0
 10
264.9999999999999
 20
84.99999999999994
 30
-42.00000000000011
 70
   192
  0
VERTEX
  5
2911
  8
0
 10
264.9999999999999
 20
84.99999999999994
 30
-43.00000000000011
 70
   192
  0
VERTEX
  5
2912
  8
0
 10
262.8786796564402
 20
85.8786796564403
 30
-42.00000000000011
 70
   192
  0
VERTEX
  5
2913
  8
0
 10
262.8786796564402
 20
85.8786796564403
 30
-43.00000000000011
 70
   192
  0
VERTEX
  5
2914
  8
0
 10
267.1213203435595
 20
85.8786796564403
 30
-42.00000000000011
 70
   192
  0
VERTEX
  5
2915
  8
0
 10
267.1213203435595
 20
85.8786796564403
 30
-43.00000000000011
 70
   192
  0
VERTEX
  5
2916
  8
0
 10
0.0
 20
0.0
 30
0.0
 70
   128
 71
     8
 72
     1
 73
    -4
  0
VERTEX
  5
2917
  8
0
 10
0.0
 20
0.0
 30
0.0
 70
   128
 71
     7
 72
    -8
 73
     4
  0
VERTEX
  5
2918
  8
0
 10
0.0
 20
0.0
 30
0.0
 70
   128
 71
     6
 72
     8
 73
    -7
  0
VERTEX
  5
2919
  8
0
 10
0.0
 20
0.0
 30
0.0
 70
   128
 71
     5
 72
    -6
 73
     7
  0
VERTEX
  5
291A
  8
0
 10
0.0
 20
0.0
 30
0.0
 70
   128
 71
    10
 72
     6
 73
    -5
  0
VERTEX
  5
291B
  8
0
 10
0.0
 20
0.0
 30
0.0
 70
   128
 71
     9
 72
   -10
 73
     5
  0
VERTEX
  5
291C
  8
0
 10
0.0
 20
0.0
 30
0.0
 70
   128
 71
     2
 72
    10
 73
    -9
  0
VERTEX
  5
291D
  8
0
 10
0.0
 20
0.0
 30
0.0
 70
   128
 71
     3
 72
    -2
 73
     9
  0
SEQEND
  5
2F93
  8
0
  0
POLYLINE
  5
291E
  8
0
 66
     1
 10
0.0
 20
0.0
 30
0.0
 70
    64
 71
    10
 72
     8
  0
VERTEX
  5
291F
  8
0
 10
281.9999999999999
 20
87.99999999999994
 30
-43.00000000000011
 70
   192
  0
VERTEX
  5
2920
  8
0
 10
287.9999999999999
 20
87.99999999999994
 30
-43.00000000000011
 70
   192
  0
VERTEX
  5
2921
  8
0
 10
287.9999999999999
 20
87.99999999999994
 30
-42.00000000000011
 70
   192
  0
VERTEX
  5
2922
  8
0
 10
281.9999999999999
 20
87.99999999999994
 30
-42.00000000000011
 70
   192
  0
VERTEX
  5
2923
  8
0
 10
284.9999999999999
 20
84.99999999999994
 30
-42.00000000000011
 70
   192
  0
VERTEX
  5
2924
  8
0
 10
284.9999999999999
 20
84.99999999999994
 30
-43.00000000000011
 70
   192
  0
VERTEX
  5
2925
  8
0
 10
282.8786796564403
 20
85.8786796564403
 30
-42.00000000000011
 70
   192
  0
VERTEX
  5
2926
  8
0
 10
282.8786796564403
 20
85.8786796564403
 30
-43.00000000000011
 70
   192
  0
VERTEX
  5
2927
  8
0
 10
287.1213203435596
 20
85.8786796564403
 30
-42.00000000000011
 70
   192
  0
VERTEX
  5
2928
  8
0
 10
287.1213203435596
 20
85.8786796564403
 30
-43.00000000000011
 70
   192
  0
VERTEX
  5
2929
  8
0
 10
0.0
 20
0.0
 30
0.0
 70
   128
 71
     8
 72
     1
 73
    -4
  0
VERTEX
  5
292A
  8
0
 10
0.0
 20
0.0
 30
0.0
 70
   128
 71
     7
 72
    -8
 73
     4
  0
VERTEX
  5
292B
  8
0
 10
0.0
 20
0.0
 30
0.0
 70
   128
 71
     6
 72
     8
 73
    -7
  0
VERTEX
  5
292C
  8
0
 10
0.0
 20
0.0
 30
0.0
 70
   128
 71
     5
 72
    -6
 73
     7
  0
VERTEX
  5
292D
  8
0
 10
0.0
 20
0.0
 30
0.0
 70
   128
 71
    10
 72
     6
 73
    -5
  0
VERTEX
  5
292E
  8
0
 10
0.0
 20
0.0
 30
0.0
 70
   128
 71
     9
 72
   -10
 73
     5
  0
VERTEX
  5
292F
  8
0
 10
0.0
 20
0.0
 30
0.0
 70
   128
 71
     2
 72
    10
 73
    -9
  0
VERTEX
  5
2930
  8
0
 10
0.0
 20
0.0
 30
0.0
 70
   128
 71
     3
 72
    -2
 73
     9
  0
SEQEND
  5
2F94
  8
0
  0
POLYLINE
  5
2931
  8
0
 66
     1
 10
0.0
 20
0.0
 30
0.0
 70
    64
 71
    10
 72
     8
  0
VERTEX
  5
2932
  8
0
 10
272.4999999999999
 20
87.99999999999994
 30
-43.00000000000011
 70
   192
  0
VERTEX
  5
2933
  8
0
 10
277.4999999999999
 20
87.99999999999994
 30
-43.00000000000011
 70
   192
  0
VERTEX
  5
2934
  8
0
 10
277.4999999999999
 20
87.99999999999994
 30
-42.00000000000011
 70
   192
  0
VERTEX
  5
2935
  8
0
 10
272.4999999999999
 20
87.99999999999994
 30
-42.00000000000011
 70
   192
  0
VERTEX
  5
2936
  8
0
 10
274.9999999999999
 20
85.49999999999994
 30
-42.00000000000011
 70
   192
  0
VERTEX
  5
2937
  8
0
 10
274.9999999999999
 20
85.49999999999994
 30
-43.00000000000011
 70
   192
  0
VERTEX
  5
2938
  8
0
 10
273.2322330470335
 20
86.23223304703357
 30
-42.00000000000011
 70
   192
  0
VERTEX
  5
2939
  8
0
 10
273.2322330470335
 20
86.23223304703357
 30
-43.00000000000011
 70
   192
  0
VERTEX
  5
293A
  8
0
 10
276.7677669529663
 20
86.23223304703357
 30
-42.00000000000011
 70
   192
  0
VERTEX
  5
293B
  8
0
 10
276.7677669529663
 20
86.23223304703357
 30
-43.00000000000011
 70
   192
  0
VERTEX
  5
293C
  8
0
 10
0.0
 20
0.0
 30
0.0
 70
   128
 71
     8
 72
     1
 73
    -4
  0
VERTEX
  5
293D
  8
0
 10
0.0
 20
0.0
 30
0.0
 70
   128
 71
     7
 72
    -8
 73
     4
  0
VERTEX
  5
293E
  8
0
 10
0.0
 20
0.0
 30
0.0
 70
   128
 71
     6
 72
     8
 73
    -7
  0
VERTEX
  5
293F
  8
0
 10
0.0
 20
0.0
 30
0.0
 70
   128
 71
     5
 72
    -6
 73
     7
  0
VERTEX
  5
2940
  8
0
 10
0.0
 20
0.0
 30
0.0
 70
   128
 71
    10
 72
     6
 73
    -5
  0
VERTEX
  5
2941
  8
0
 10
0.0
 20
0.0
 30
0.0
 70
   128
 71
     9
 72
   -10
 73
     5
  0
VERTEX
  5
2942
  8
0
 10
0.0
 20
0.0
 30
0.0
 70
   128
 71
     2
 72
    10
 73
    -9
  0
VERTEX
  5
2943
  8
0
 10
0.0
 20
0.0
 30
0.0
 70
   128
 71
     3
 72
    -2
 73
     9
  0
SEQEND
  5
2F95
  8
0
  0
POLYLINE
  5
2944
  8
0
 66
     1
 10
0.0
 20
0.0
 30
0.0
 70
    64
 71
    12
 72
    10
  0
VERTEX
  5
2945
  8
0
 10
293.2028823734362
 20
101.2251681765806
 30
-44.0000000000001
 70
   192
  0
VERTEX
  5
2946
  8
0
 10
297.4999999999998
 20
87.99999999999994
 30
-44.0000000000001
 70
   192
  0
VERTEX
  5
2947
  8
0
 10
297.4999999999999
 20
87.99999999999994
 30
-74.0000000000001
 70
   192
  0
VERTEX
  5
2948
  8
0
 10
293.2028823734362
 20
101.2251681765806
 30
-74.0000000000001
 70
   192
  0
VERTEX
  5
2949
  8
0
 10
256.7971176265636
 20
101.2251681765806
 30
-74.0000000000001
 70
   192
  0
VERTEX
  5
294A
  8
0
 10
252.4999999999999
 20
87.99999999999994
 30
-74.0000000000001
 70
   192
  0
VERTEX
  5
294B
  8
0
 10
252.4999999999999
 20
87.99999999999994
 30
-44.0000000000001
 70
   192
  0
VERTEX
  5
294C
  8
0
 10
256.7971176265636
 20
101.2251681765806
 30
-44.0000000000001
 70
   192
  0
VERTEX
  5
294D
  8
0
 10
281.9528823734362
 20
109.3987716166409
 30
-44.0000000000001
 70
   192
  0
VERTEX
  5
294E
  8
0
 10
281.9528823734362
 20
109.3987716166409
 30
-74.0000000000001
 70
   192
  0
VERTEX
  5
294F
  8
0
 10
268.0471176265636
 20
109.3987716166409
 30
-74.0000000000001
 70
   192
  0
VERTEX
  5
2950
  8
0
 10
268.0471176265636
 20
109.3987716166409
 30
-44.0000000000001
 70
   192
  0
VERTEX
  5
2951
  8
0
 10
0.0
 20
0.0
 30
0.0
 70
   128
 71
     1
 72
     2
 73
    -3
  0
VERTEX
  5
2952
  8
0
 10
0.0
 20
0.0
 30
0.0
 70
   128
 71
    -1
 72
     3
 73
     4
  0
VERTEX
  5
2953
  8
0
 10
0.0
 20
0.0
 30
0.0
 70
   128
 71
     5
 72
     6
 73
    -7
  0
VERTEX
  5
2954
  8
0
 10
0.0
 20
0.0
 30
0.0
 70
   128
 71
    -5
 72
     7
 73
     8
  0
VERTEX
  5
2955
  8
0
 10
0.0
 20
0.0
 30
0.0
 70
   128
 71
     9
 72
    10
 73
   -11
  0
VERTEX
  5
2956
  8
0
 10
0.0
 20
0.0
 30
0.0
 70
   128
 71
    -9
 72
    11
 73
    12
  0
VERTEX
  5
2957
  8
0
 10
0.0
 20
0.0
 30
0.0
 70
   128
 71
     1
 72
     4
 73
   -10
  0
VERTEX
  5
2958
  8
0
 10
0.0
 20
0.0
 30
0.0
 70
   128
 71
    -1
 72
    10
 73
     9
  0
VERTEX
  5
2959
  8
0
 10
0.0
 20
0.0
 30
0.0
 70
   128
 71
    12
 72
    11
 73
    -5
  0
VERTEX
  5
295A
  8
0
 10
0.0
 20
0.0
 30
0.0
 70
   128
 71
   -12
 72
     5
 73
     8
  0
SEQEND
  5
2F96
  8
0
  0
POLYLINE
  5
295B
  8
0
 66
     1
 10
0.0
 20
0.0
 30
0.0
 70
    64
 71
    12
 72
    10
  0
VERTEX
  5
295C
  8
0
 10
252.4999999999999
 20
87.99999999999994
 30
-42.00000000000011
 70
   192
  0
VERTEX
  5
295D
  8
0
 10
252.4999999999999
 20
87.99999999999994
 30
-39.00000000000011
 70
   192
  0
VERTEX
  5
295E
  8
0
 10
256.7971176265636
 20
74.77483182341932
 30
-39.00000000000011
 70
   192
  0
VERTEX
  5
295F
  8
0
 10
256.7971176265636
 20
74.77483182341932
 30
-42.00000000000011
 70
   192
  0
VERTEX
  5
2960
  8
0
 10
297.4999999999998
 20
87.99999999999994
 30
-39.00000000000011
 70
   192
  0
VERTEX
  5
2961
  8
0
 10
297.4999999999998
 20
87.99999999999994
 30
-42.00000000000011
 70
   192
  0
VERTEX
  5
2962
  8
0
 10
293.2028823734362
 20
74.77483182341932
 30
-42.00000000000011
 70
   192
  0
VERTEX
  5
2963
  8
0
 10
293.2028823734362
 20
74.77483182341932
 30
-39.00000000000011
 70
   192
  0
VERTEX
  5
2964
  8
0
 10
281.9528823734362
 20
66.60122838335901
 30
-42.00000000000011
 70
   192
  0
VERTEX
  5
2965
  8
0
 10
268.0471176265636
 20
66.60122838335903
 30
-42.00000000000011
 70
   192
  0
VERTEX
  5
2966
  8
0
 10
268.0471176265636
 20
66.60122838335903
 30
-39.00000000000011
 70
   192
  0
VERTEX
  5
2967
  8
0
 10
281.9528823734362
 20
66.60122838335901
 30
-39.00000000000011
 70
   192
  0
VERTEX
  5
2968
  8
0
 10
0.0
 20
0.0
 30
0.0
 70
   128
 71
     1
 72
     2
 73
    -3
  0
VERTEX
  5
2969
  8
0
 10
0.0
 20
0.0
 30
0.0
 70
   128
 71
     4
 72
    -1
 73
     3
  0
VERTEX
  5
296A
  8
0
 10
0.0
 20
0.0
 30
0.0
 70
   128
 71
     5
 72
     6
 73
    -7
  0
VERTEX
  5
296B
  8
0
 10
0.0
 20
0.0
 30
0.0
 70
   128
 71
     8
 72
    -5
 73
     7
  0
VERTEX
  5
296C
  8
0
 10
0.0
 20
0.0
 30
0.0
 70
   128
 71
     9
 72
    10
 73
   -11
  0
VERTEX
  5
296D
  8
0
 10
0.0
 20
0.0
 30
0.0
 70
   128
 71
    12
 72
    -9
 73
    11
  0
VERTEX
  5
296E
  8
0
 10
0.0
 20
0.0
 30
0.0
 70
   128
 71
    10
 72
     4
 73
    -3
  0
VERTEX
  5
296F
  8
0
 10
0.0
 20
0.0
 30
0.0
 70
   128
 71
    11
 72
   -10
 73
     3
  0
VERTEX
  5
2970
  8
0
 10
0.0
 20
0.0
 30
0.0
 70
   128
 71
     7
 72
     9
 73
   -12
  0
VERTEX
  5
2971
  8
0
 10
0.0
 20
0.0
 30
0.0
 70
   128
 71
     8
 72
    -7
 73
    12
  0
SEQEND
  5
2F97
  8
0
  0
POLYLINE
  5
2972
  8
0
 66
     1
 10
0.0
 20
0.0
 30
0.0
 70
    64
 71
     4
 72
     2
  0
VERTEX
  5
2973
  8
0
 10
244.9999999999999
 20
117.9999999999999
 30
-44.0000000000001
 70
   192
  0
VERTEX
  5
2974
  8
0
 10
244.9999999999999
 20
117.9999999999999
 30
-39.00000000000011
 70
   192
  0
VERTEX
  5
2975
  8
0
 10
244.9999999999999
 20
57.99999999999999
 30
-39.00000000000011
 70
   192
  0
VERTEX
  5
2976
  8
0
 10
244.9999999999999
 20
57.99999999999999
 30
-44.0000000000001
 70
   192
  0
VERTEX
  5
2977
  8
0
 10
0.0
 20
0.0
 30
0.0
 70
   128
 71
     1
 72
     4
 73
    -3
  0
VERTEX
  5
2978
  8
0
 10
0.0
 20
0.0
 30
0.0
 70
   128
 71
    -1
 72
     3
 73
     2
  0
SEQEND
  5
2F98
  8
0
  0
POLYLINE
  5
2979
  8
0
 66
     1
 10
0.0
 20
0.0
 30
0.0
 70
    64
 71
     4
 72
     2
  0
VERTEX
  5
297A
  8
0
 10
244.9999999999999
 20
57.99999999999999
 30
-44.0000000000001
 70
   192
  0
VERTEX
  5
297B
  8
0
 10
244.9999999999999
 20
57.99999999999999
 30
-39.00000000000011
 70
   192
  0
VERTEX
  5
297C
  8
0
 10
304.9999999999999
 20
58.00000000000002
 30
-39.00000000000011
 70
   192
  0
VERTEX
  5
297D
  8
0
 10
304.9999999999999
 20
58.00000000000002
 30
-44.0000000000001
 70
   192
  0
VERTEX
  5
297E
  8
0
 10
0.0
 20
0.0
 30
0.0
 70
   128
 71
     1
 72
     4
 73
    -3
  0
VERTEX
  5
297F
  8
0
 10
0.0
 20
0.0
 30
0.0
 70
   128
 71
    -1
 72
     3
 73
     2
  0
SEQEND
  5
2F99
  8
0
  0
POLYLINE
  5
2980
  8
0
 66
     1
 10
0.0
 20
0.0
 30
0.0
 70
    64
 71
     4
 72
     2
  0
VERTEX
  5
2981
  8
0
 10
304.9999999999999
 20
58.00000000000002
 30
-44.0000000000001
 70
   192
  0
VERTEX
  5
2982
  8
0
 10
304.9999999999999
 20
58.00000000000002
 30
-39.00000000000011
 70
   192
  0
VERTEX
  5
2983
  8
0
 10
304.9999999999999
 20
118.0
 30
-39.00000000000011
 70
   192
  0
VERTEX
  5
2984
  8
0
 10
304.9999999999999
 20
118.0
 30
-44.0000000000001
 70
   192
  0
VERTEX
  5
2985
  8
0
 10
0.0
 20
0.0
 30
0.0
 70
   128
 71
     1
 72
     4
 73
    -3
  0
VERTEX
  5
2986
  8
0
 10
0.0
 20
0.0
 30
0.0
 70
   128
 71
    -1
 72
     3
 73
     2
  0
SEQEND
  5
2F9A
  8
0
  0
POLYLINE
  5
2987
  8
0
 66
     1
 10
0.0
 20
0.0
 30
0.0
 70
    64
 71
     4
 72
     2
  0
VERTEX
  5
2988
  8
0
 10
304.9999999999999
 20
118.0
 30
-44.0000000000001
 70
   192
  0
VERTEX
  5
2989
  8
0
 10
304.9999999999999
 20
118.0
 30
-39.00000000000011
 70
   192
  0
VERTEX
  5
298A
  8
0
 10
244.9999999999999
 20
117.9999999999999
 30
-39.00000000000011
 70
   192
  0
VERTEX
  5
298B
  8
0
 10
244.9999999999999
 20
117.9999999999999
 30
-44.0000000000001
 70
   192
  0
VERTEX
  5
298C
  8
0
 10
0.0
 20
0.0
 30
0.0
 70
   128
 71
     1
 72
     4
 73
    -3
  0
VERTEX
  5
298D
  8
0
 10
0.0
 20
0.0
 30
0.0
 70
   128
 71
    -1
 72
     3
 73
     2
  0
SEQEND
  5
2F9B
  8
0
  0
POLYLINE
  5
298E
  8
0
 66
     1
 10
0.0
 20
0.0
 30
0.0
 70
    64
 71
    14
 72
    14
  0
VERTEX
  5
298F
  8
0
 10
244.9999999999999
 20
117.9999999999999
 30
-39.00000000000011
 70
   192
  0
VERTEX
  5
2990
  8
0
 10
244.9999999999999
 20
57.99999999999999
 30
-39.00000000000011
 70
   192
  0
VERTEX
  5
2991
  8
0
 10
304.9999999999999
 20
58.00000000000002
 30
-39.00000000000011
 70
   192
  0
VERTEX
  5
2992
  8
0
 10
304.9999999999999
 20
118.0
 30
-39.00000000000011
 70
   192
  0
VERTEX
  5
2993
  8
0
 10
252.4999999999999
 20
87.99999999999994
 30
-39.00000000000011
 70
   192
  0
VERTEX
  5
2994
  8
0
 10
256.7971176265636
 20
101.2251681765806
 30
-39.00000000000011
 70
   192
  0
VERTEX
  5
2995
  8
0
 10
268.0471176265636
 20
109.3987716166409
 30
-39.00000000000011
 70
   192
  0
VERTEX
  5
2996
  8
0
 10
281.9528823734362
 20
109.3987716166409
 30
-39.00000000000011
 70
   192
  0
VERTEX
  5
2997
  8
0
 10
293.2028823734362
 20
101.2251681765806
 30
-39.00000000000011
 70
   192
  0
VERTEX
  5
2998
  8
0
 10
297.4999999999998
 20
87.99999999999994
 30
-39.00000000000011
 70
   192
  0
VERTEX
  5
2999
  8
0
 10
293.2028823734362
 20
74.77483182341932
 30
-39.00000000000011
 70
   192
  0
VERTEX
  5
299A
  8
0
 10
281.9528823734362
 20
66.60122838335901
 30
-39.00000000000011
 70
   192
  0
VERTEX
  5
299B
  8
0
 10
268.0471176265636
 20
66.60122838335903
 30
-39.00000000000011
 70
   192
  0
VERTEX
  5
299C
  8
0
 10
256.7971176265636
 20
74.77483182341932
 30
-39.00000000000011
 70
   192
  0
VERTEX
  5
299D
  8
0
 10
0.0
 20
0.0
 30
0.0
 70
   128
 71
     1
 72
    -2
 73
    -5
  0
VERTEX
  5
299E
  8
0
 10
0.0
 20
0.0
 30
0.0
 70
   128
 71
     5
 72
    -6
 73
    -1
  0
VERTEX
  5
299F
  8
0
 10
0.0
 20
0.0
 30
0.0
 70
   128
 71
     6
 72
    -7
 73
    -1
  0
VERTEX
  5
29A0
  8
0
 10
0.0
 20
0.0
 30
0.0
 70
   128
 71
    -8
 72
     4
 73
    -1
  0
VERTEX
  5
29A1
  8
0
 10
0.0
 20
0.0
 30
0.0
 70
   128
 71
     7
 72
    -8
 73
    -1
  0
VERTEX
  5
29A2
  8
0
 10
0.0
 20
0.0
 30
0.0
 70
   128
 71
     8
 72
    -9
 73
    -4
  0
VERTEX
  5
29A3
  8
0
 10
0.0
 20
0.0
 30
0.0
 70
   128
 71
     9
 72
   -10
 73
    -4
  0
VERTEX
  5
29A4
  8
0
 10
0.0
 20
0.0
 30
0.0
 70
   128
 71
   -10
 72
     3
 73
    -4
  0
VERTEX
  5
29A5
  8
0
 10
0.0
 20
0.0
 30
0.0
 70
   128
 71
    10
 72
   -11
 73
    -3
  0
VERTEX
  5
29A6
  8
0
 10
0.0
 20
0.0
 30
0.0
 70
   128
 71
    11
 72
   -12
 73
    -3
  0
VERTEX
  5
29A7
  8
0
 10
0.0
 20
0.0
 30
0.0
 70
   128
 71
   -13
 72
     2
 73
    -3
  0
VERTEX
  5
29A8
  8
0
 10
0.0
 20
0.0
 30
0.0
 70
   128
 71
    12
 72
   -13
 73
    -3
  0
VERTEX
  5
29A9
  8
0
 10
0.0
 20
0.0
 30
0.0
 70
   128
 71
    13
 72
   -14
 73
    -2
  0
VERTEX
  5
29AA
  8
0
 10
0.0
 20
0.0
 30
0.0
 70
   128
 71
    14
 72
    -5
 73
    -2
  0
SEQEND
  5
2F9C
  8
0
  0
POLYLINE
  5
29AB
  8
0
 66
     1
 10
0.0
 20
0.0
 30
0.0
 70
    64
 71
    14
 72
    14
  0
VERTEX
  5
29AC
  8
0
 10
244.9999999999999
 20
57.99999999999999
 30
-44.0000000000001
 70
   192
  0
VERTEX
  5
29AD
  8
0
 10
304.9999999999999
 20
58.00000000000002
 30
-44.0000000000001
 70
   192
  0
VERTEX
  5
29AE
  8
0
 10
304.9999999999999
 20
118.0
 30
-44.0000000000001
 70
   192
  0
VERTEX
  5
29AF
  8
0
 10
244.9999999999999
 20
117.9999999999999
 30
-44.0000000000001
 70
   192
  0
VERTEX
  5
29B0
  8
0
 10
297.4999999999998
 20
87.99999999999994
 30
-44.0000000000001
 70
   192
  0
VERTEX
  5
29B1
  8
0
 10
293.2028823734362
 20
74.77483182341932
 30
-44.0000000000001
 70
   192
  0
VERTEX
  5
29B2
  8
0
 10
281.9528823734362
 20
66.60122838335901
 30
-44.0000000000001
 70
   192
  0
VERTEX
  5
29B3
  8
0
 10
268.0471176265636
 20
66.60122838335903
 30
-44.0000000000001
 70
   192
  0
VERTEX
  5
29B4
  8
0
 10
256.7971176265636
 20
74.77483182341932
 30
-44.0000000000001
 70
   192
  0
VERTEX
  5
29B5
  8
0
 10
252.4999999999999
 20
87.99999999999994
 30
-44.0000000000001
 70
   192
  0
VERTEX
  5
29B6
  8
0
 10
256.7971176265636
 20
101.2251681765806
 30
-44.0000000000001
 70
   192
  0
VERTEX
  5
29B7
  8
0
 10
268.0471176265636
 20
109.3987716166409
 30
-44.0000000000001
 70
   192
  0
VERTEX
  5
29B8
  8
0
 10
281.9528823734362
 20
109.3987716166409
 30
-44.0000000000001
 70
   192
  0
VERTEX
  5
29B9
  8
0
 10
293.2028823734362
 20
101.2251681765806
 30
-44.0000000000001
 70
   192
  0
VERTEX
  5
29BA
  8
0
 10
0.0
 20
0.0
 30
0.0
 70
   128
 71
     6
 72
    -5
 73
    -2
  0
VERTEX
  5
29BB
  8
0
 10
0.0
 20
0.0
 30
0.0
 70
   128
 71
    -2
 72
     7
 73
    -6
  0
VERTEX
  5
29BC
  8
0
 10
0.0
 20
0.0
 30
0.0
 70
   128
 71
     2
 72
    -1
 73
    -8
  0
VERTEX
  5
29BD
  8
0
 10
0.0
 20
0.0
 30
0.0
 70
   128
 71
    -2
 72
     8
 73
    -7
  0
VERTEX
  5
29BE
  8
0
 10
0.0
 20
0.0
 30
0.0
 70
   128
 71
    -1
 72
     9
 73
    -8
  0
VERTEX
  5
29BF
  8
0
 10
0.0
 20
0.0
 30
0.0
 70
   128
 71
    -1
 72
    10
 73
    -9
  0
VERTEX
  5
29C0
  8
0
 10
0.0
 20
0.0
 30
0.0
 70
   128
 71
   -10
 72
     1
 73
    -4
  0
VERTEX
  5
29C1
  8
0
 10
0.0
 20
0.0
 30
0.0
 70
   128
 71
    -4
 72
    11
 73
   -10
  0
VERTEX
  5
29C2
  8
0
 10
0.0
 20
0.0
 30
0.0
 70
   128
 71
    -4
 72
    12
 73
   -11
  0
VERTEX
  5
29C3
  8
0
 10
0.0
 20
0.0
 30
0.0
 70
   128
 71
     4
 72
    -3
 73
   -13
  0
VERTEX
  5
29C4
  8
0
 10
0.0
 20
0.0
 30
0.0
 70
   128
 71
    -4
 72
    13
 73
   -12
  0
VERTEX
  5
29C5
  8
0
 10
0.0
 20
0.0
 30
0.0
 70
   128
 71
    -3
 72
    14
 73
   -13
  0
VERTEX
  5
29C6
  8
0
 10
0.0
 20
0.0
 30
0.0
 70
   128
 71
    -3
 72
     5
 73
   -14
  0
VERTEX
  5
29C7
  8
0
 10
0.0
 20
0.0
 30
0.0
 70
   128
 71
     3
 72
    -2
 73
    -5
  0
SEQEND
  5
2F9D
  8
0
  0
POLYLINE
  5
29C8
  8
0
 66
     1
 10
0.0
 20
0.0
 30
0.0
 70
    64
 71
    12
 72
    10
  0
VERTEX
  5
29C9
  8
0
 10
297.4999999999998
 20
87.99999999999994
 30
-42.00000000000011
 70
   192
  0
VERTEX
  5
29CA
  8
0
 10
297.4999999999999
 20
87.99999999999994
 30
-39.00000000000011
 70
   192
  0
VERTEX
  5
29CB
  8
0
 10
293.2028823734362
 20
101.2251681765806
 30
-39.00000000000011
 70
   192
  0
VERTEX
  5
29CC
  8
0
 10
293.2028823734362
 20
101.2251681765806
 30
-42.00000000000011
 70
   192
  0
VERTEX
  5
29CD
  8
0
 10
252.4999999999999
 20
87.99999999999994
 30
-39.00000000000011
 70
   192
  0
VERTEX
  5
29CE
  8
0
 10
252.4999999999999
 20
87.99999999999994
 30
-42.00000000000011
 70
   192
  0
VERTEX
  5
29CF
  8
0
 10
256.7971176265636
 20
101.2251681765806
 30
-42.00000000000011
 70
   192
  0
VERTEX
  5
29D0
  8
0
 10
256.7971176265636
 20
101.2251681765806
 30
-39.00000000000011
 70
   192
  0
VERTEX
  5
29D1
  8
0
 10
268.0471176265636
 20
109.3987716166409
 30
-42.00000000000011
 70
   192
  0
VERTEX
  5
29D2
  8
0
 10
281.9528823734362
 20
109.3987716166409
 30
-42.00000000000011
 70
   192
  0
VERTEX
  5
29D3
  8
0
 10
281.9528823734362
 20
109.3987716166409
 30
-39.00000000000011
 70
   192
  0
VERTEX
  5
29D4
  8
0
 10
268.0471176265636
 20
109.3987716166409
 30
-39.00000000000011
 70
   192
  0
VERTEX
  5
29D5
  8
0
 10
0.0
 20
0.0
 30
0.0
 70
   128
 71
     1
 72
     2
 73
    -3
  0
VERTEX
  5
29D6
  8
0
 10
0.0
 20
0.0
 30
0.0
 70
   128
 71
     4
 72
    -1
 73
     3
  0
VERTEX
  5
29D7
  8
0
 10
0.0
 20
0.0
 30
0.0
 70
   128
 71
     5
 72
     6
 73
    -7
  0
VERTEX
  5
29D8
  8
0
 10
0.0
 20
0.0
 30
0.0
 70
   128
 71
     8
 72
    -5
 73
     7
  0
VERTEX
  5
29D9
  8
0
 10
0.0
 20
0.0
 30
0.0
 70
   128
 71
     9
 72
    10
 73
   -11
  0
VERTEX
  5
29DA
  8
0
 10
0.0
 20
0.0
 30
0.0
 70
   128
 71
    12
 72
    -9
 73
    11
  0
VERTEX
  5
29DB
  8
0
 10
0.0
 20
0.0
 30
0.0
 70
   128
 71
    10
 72
     4
 73
    -3
  0
VERTEX
  5
29DC
  8
0
 10
0.0
 20
0.0
 30
0.0
 70
   128
 71
    11
 72
   -10
 73
     3
  0
VERTEX
  5
29DD
  8
0
 10
0.0
 20
0.0
 30
0.0
 70
   128
 71
     7
 72
     9
 73
   -12
  0
VERTEX
  5
29DE
  8
0
 10
0.0
 20
0.0
 30
0.0
 70
   128
 71
     8
 72
    -7
 73
    12
  0
SEQEND
  5
2F9E
  8
0
  0
POLYLINE
  5
29DF
  8
0
 66
     1
 10
0.0
 20
0.0
 30
0.0
 70
    64
 71
    42
 72
    48
  0
VERTEX
  5
29E0
  8
0
 10
297.4999999999998
 20
87.99999999999994
 30
-42.00000000000011
 70
   192
  0
VERTEX
  5
29E1
  8
0
 10
293.2028823734362
 20
101.2251681765806
 30
-42.00000000000011
 70
   192
  0
VERTEX
  5
29E2
  8
0
 10
281.9528823734362
 20
109.3987716166409
 30
-42.00000000000011
 70
   192
  0
VERTEX
  5
29E3
  8
0
 10
268.0471176265636
 20
109.3987716166409
 30
-42.00000000000011
 70
   192
  0
VERTEX
  5
29E4
  8
0
 10
256.7971176265636
 20
101.2251681765806
 30
-42.00000000000011
 70
   192
  0
VERTEX
  5
29E5
  8
0
 10
252.4999999999999
 20
87.99999999999994
 30
-42.00000000000011
 70
   192
  0
VERTEX
  5
29E6
  8
0
 10
256.7971176265636
 20
74.77483182341932
 30
-42.00000000000011
 70
   192
  0
VERTEX
  5
29E7
  8
0
 10
268.0471176265636
 20
66.60122838335903
 30
-42.00000000000011
 70
   192
  0
VERTEX
  5
29E8
  8
0
 10
281.9528823734362
 20
66.60122838335901
 30
-42.00000000000011
 70
   192
  0
VERTEX
  5
29E9
  8
0
 10
293.2028823734362
 20
74.77483182341932
 30
-42.00000000000011
 70
   192
  0
VERTEX
  5
29EA
  8
0
 10
261.9999999999999
 20
87.99999999999994
 30
-42.00000000000011
 70
   192
  0
VERTEX
  5
29EB
  8
0
 10
262.8786796564402
 20
90.12132034355959
 30
-42.00000000000011
 70
   192
  0
VERTEX
  5
29EC
  8
0
 10
264.9999999999999
 20
90.99999999999994
 30
-42.00000000000011
 70
   192
  0
VERTEX
  5
29ED
  8
0
 10
267.1213203435595
 20
90.12132034355959
 30
-42.00000000000011
 70
   192
  0
VERTEX
  5
29EE
  8
0
 10
267.9999999999999
 20
87.99999999999994
 30
-42.00000000000011
 70
   192
  0
VERTEX
  5
29EF
  8
0
 10
267.1213203435595
 20
85.8786796564403
 30
-42.00000000000011
 70
   192
  0
VERTEX
  5
29F0
  8
0
 10
264.9999999999999
 20
84.99999999999994
 30
-42.00000000000011
 70
   192
  0
VERTEX
  5
29F1
  8
0
 10
262.8786796564402
 20
85.8786796564403
 30
-42.00000000000011
 70
   192
  0
VERTEX
  5
29F2
  8
0
 10
281.9999999999999
 20
87.99999999999994
 30
-42.00000000000011
 70
   192
  0
VERTEX
  5
29F3
  8
0
 10
282.8786796564403
 20
90.12132034355959
 30
-42.00000000000011
 70
   192
  0
VERTEX
  5
29F4
  8
0
 10
284.9999999999999
 20
90.99999999999994
 30
-42.00000000000011
 70
   192
  0
VERTEX
  5
29F5
  8
0
 10
287.1213203435596
 20
90.12132034355959
 30
-42.00000000000011
 70
   192
  0
VERTEX
  5
29F6
  8
0
 10
287.9999999999999
 20
87.99999999999994
 30
-42.00000000000011
 70
   192
  0
VERTEX
  5
29F7
  8
0
 10
287.1213203435596
 20
85.8786796564403
 30
-42.00000000000011
 70
   192
  0
VERTEX
  5
29F8
  8
0
 10
284.9999999999999
 20
84.99999999999994
 30
-42.00000000000011
 70
   192
  0
VERTEX
  5
29F9
  8
0
 10
282.8786796564403
 20
85.8786796564403
 30
-42.00000000000011
 70
   192
  0
VERTEX
  5
29FA
  8
0
 10
272.4999999999999
 20
87.99999999999994
 30
-42.00000000000011
 70
   192
  0
VERTEX
  5
29FB
  8
0
 10
273.2322330470335
 20
89.76776695296631
 30
-42.00000000000011
 70
   192
  0
VERTEX
  5
29FC
  8
0
 10
274.9999999999999
 20
90.49999999999994
 30
-42.00000000000011
 70
   192
  0
VERTEX
  5
29FD
  8
0
 10
276.7677669529663
 20
89.76776695296631
 30
-42.00000000000011
 70
   192
  0
VERTEX
  5
29FE
  8
0
 10
277.4999999999999
 20
87.99999999999994
 30
-42.00000000000011
 70
   192
  0
VERTEX
  5
29FF
  8
0
 10
276.7677669529663
 20
86.23223304703357
 30
-42.00000000000011
 70
   192
  0
VERTEX
  5
2A00
  8
0
 10
274.9999999999999
 20
85.49999999999994
 30
-42.00000000000011
 70
   192
  0
VERTEX
  5
2A01
  8
0
 10
273.2322330470335
 20
86.23223304703357
 30
-42.00000000000011
 70
   192
  0
VERTEX
  5
2A02
  8
0
 10
276.9999999999999
 20
102.9999999999999
 30
-42.00000000000011
 70
   192
  0
VERTEX
  5
2A03
  8
0
 10
276.414213562373
 20
101.5857864376269
 30
-42.00000000000011
 70
   192
  0
VERTEX
  5
2A04
  8
0
 10
274.9999999999999
 20
100.9999999999999
 30
-42.00000000000011
 70
   192
  0
VERTEX
  5
2A05
  8
0
 10
273.5857864376268
 20
101.5857864376269
 30
-42.00000000000011
 70
   192
  0
VERTEX
  5
2A06
  8
0
 10
272.9999999999999
 20
102.9999999999999
 30
-42.00000000000011
 70
   192
  0
VERTEX
  5
2A07
  8
0
 10
273.5857864376268
 20
104.414213562373
 30
-42.00000000000011
 70
   192
  0
VERTEX
  5
2A08
  8
0
 10
274.9999999999999
 20
104.9999999999999
 30
-42.00000000000011
 70
   192
  0
VERTEX
  5
2A09
  8
0
 10
276.414213562373
 20
104.414213562373
 30
-42.00000000000011
 70
   192
  0
VERTEX
  5
2A0A
  8
0
 10
0.0
 20
0.0
 30
0.0
 70
   128
 71
   -19
 72
    31
 73
   -32
  0
VERTEX
  5
2A0B
  8
0
 10
0.0
 20
0.0
 30
0.0
 70
   128
 71
    26
 72
   -19
 73
   -32
  0
VERTEX
  5
2A0C
  8
0
 10
0.0
 20
0.0
 30
0.0
 70
   128
 71
    32
 72
   -33
 73
   -26
  0
VERTEX
  5
2A0D
  8
0
 10
0.0
 20
0.0
 30
0.0
 70
   128
 71
    -8
 72
   -26
 73
   -33
  0
VERTEX
  5
2A0E
  8
0
 10
0.0
 20
0.0
 30
0.0
 70
   128
 71
     7
 72
    -8
 73
   -33
  0
VERTEX
  5
2A0F
  8
0
 10
0.0
 20
0.0
 30
0.0
 70
   128
 71
    33
 72
   -34
 73
    -7
  0
VERTEX
  5
2A10
  8
0
 10
0.0
 20
0.0
 30
0.0
 70
   128
 71
   -27
 72
    15
 73
   -16
  0
VERTEX
  5
2A11
  8
0
 10
0.0
 20
0.0
 30
0.0
 70
   128
 71
    34
 72
   -27
 73
   -16
  0
VERTEX
  5
2A12
  8
0
 10
0.0
 20
0.0
 30
0.0
 70
   128
 71
    16
 72
   -17
 73
   -34
  0
VERTEX
  5
2A13
  8
0
 10
0.0
 20
0.0
 30
0.0
 70
   128
 71
    -7
 72
   -34
 73
   -17
  0
VERTEX
  5
2A14
  8
0
 10
0.0
 20
0.0
 30
0.0
 70
   128
 71
   -17
 72
     6
 73
    -7
  0
VERTEX
  5
2A15
  8
0
 10
0.0
 20
0.0
 30
0.0
 70
   128
 71
    17
 72
   -18
 73
    -6
  0
VERTEX
  5
2A16
  8
0
 10
0.0
 20
0.0
 30
0.0
 70
   128
 71
    18
 72
   -11
 73
    -6
  0
VERTEX
  5
2A17
  8
0
 10
0.0
 20
0.0
 30
0.0
 70
   128
 71
    -6
 72
    11
 73
   -12
  0
VERTEX
  5
2A18
  8
0
 10
0.0
 20
0.0
 30
0.0
 70
   128
 71
    12
 72
   -13
 73
    -6
  0
VERTEX
  5
2A19
  8
0
 10
0.0
 20
0.0
 30
0.0
 70
   128
 71
     5
 72
    -6
 73
   -13
  0
VERTEX
  5
2A1A
  8
0
 10
0.0
 20
0.0
 30
0.0
 70
   128
 71
   -13
 72
   -28
 73
    -5
  0
VERTEX
  5
2A1B
  8
0
 10
0.0
 20
0.0
 30
0.0
 70
   128
 71
    13
 72
   -14
 73
   -28
  0
VERTEX
  5
2A1C
  8
0
 10
0.0
 20
0.0
 30
0.0
 70
   128
 71
   -15
 72
    27
 73
   -28
  0
VERTEX
  5
2A1D
  8
0
 10
0.0
 20
0.0
 30
0.0
 70
   128
 71
    14
 72
   -15
 73
   -28
  0
VERTEX
  5
2A1E
  8
0
 10
0.0
 20
0.0
 30
0.0
 70
   128
 71
    28
 72
   -29
 73
    -5
  0
VERTEX
  5
2A1F
  8
0
 10
0.0
 20
0.0
 30
0.0
 70
   128
 71
   -20
 72
    37
 73
   -38
  0
VERTEX
  5
2A20
  8
0
 10
0.0
 20
0.0
 30
0.0
 70
   128
 71
   -29
 72
   -20
 73
   -38
  0
VERTEX
  5
2A21
  8
0
 10
0.0
 20
0.0
 30
0.0
 70
   128
 71
     4
 72
    -5
 73
   -29
  0
VERTEX
  5
2A22
  8
0
 10
0.0
 20
0.0
 30
0.0
 70
   128
 71
   -39
 72
    -4
 73
   -29
  0
VERTEX
  5
2A23
  8
0
 10
0.0
 20
0.0
 30
0.0
 70
   128
 71
    38
 72
   -39
 73
   -29
  0
VERTEX
  5
2A24
  8
0
 10
0.0
 20
0.0
 30
0.0
 70
   128
 71
    39
 72
   -40
 73
    -4
  0
VERTEX
  5
2A25
  8
0
 10
0.0
 20
0.0
 30
0.0
 70
   128
 71
   -41
 72
     3
 73
    -4
  0
VERTEX
  5
2A26
  8
0
 10
0.0
 20
0.0
 30
0.0
 70
   128
 71
    40
 72
   -41
 73
    -4
  0
VERTEX
  5
2A27
  8
0
 10
0.0
 20
0.0
 30
0.0
 70
   128
 71
    41
 72
   -42
 73
    -3
  0
VERTEX
  5
2A28
  8
0
 10
0.0
 20
0.0
 30
0.0
 70
   128
 71
    42
 72
   -35
 73
    -3
  0
VERTEX
  5
2A29
  8
0
 10
0.0
 20
0.0
 30
0.0
 70
   128
 71
    29
 72
   -30
 73
   -20
  0
VERTEX
  5
2A2A
  8
0
 10
0.0
 20
0.0
 30
0.0
 70
   128
 71
   -31
 72
    19
 73
   -20
  0
VERTEX
  5
2A2B
  8
0
 10
0.0
 20
0.0
 30
0.0
 70
   128
 71
    30
 72
   -31
 73
   -20
  0
VERTEX
  5
2A2C
  8
0
 10
0.0
 20
0.0
 30
0.0
 70
   128
 71
    -3
 72
    35
 73
   -36
  0
VERTEX
  5
2A2D
  8
0
 10
0.0
 20
0.0
 30
0.0
 70
   128
 71
     2
 72
    -3
 73
   -36
  0
VERTEX
  5
2A2E
  8
0
 10
0.0
 20
0.0
 30
0.0
 70
   128
 71
   -21
 72
    -2
 73
   -36
  0
VERTEX
  5
2A2F
  8
0
 10
0.0
 20
0.0
 30
0.0
 70
   128
 71
   -37
 72
    20
 73
   -21
  0
VERTEX
  5
2A30
  8
0
 10
0.0
 20
0.0
 30
0.0
 70
   128
 71
    36
 72
   -37
 73
   -21
  0
VERTEX
  5
2A31
  8
0
 10
0.0
 20
0.0
 30
0.0
 70
   128
 71
   -22
 72
     1
 73
    -2
  0
VERTEX
  5
2A32
  8
0
 10
0.0
 20
0.0
 30
0.0
 70
   128
 71
    21
 72
   -22
 73
    -2
  0
VERTEX
  5
2A33
  8
0
 10
0.0
 20
0.0
 30
0.0
 70
   128
 71
    22
 72
   -23
 73
    -1
  0
VERTEX
  5
2A34
  8
0
 10
0.0
 20
0.0
 30
0.0
 70
   128
 71
    23
 72
   -24
 73
    -1
  0
VERTEX
  5
2A35
  8
0
 10
0.0
 20
0.0
 30
0.0
 70
   128
 71
   -25
 72
    10
 73
    -1
  0
VERTEX
  5
2A36
  8
0
 10
0.0
 20
0.0
 30
0.0
 70
   128
 71
    24
 72
   -25
 73
    -1
  0
VERTEX
  5
2A37
  8
0
 10
0.0
 20
0.0
 30
0.0
 70
   128
 71
     8
 72
     9
 73
   -10
  0
VERTEX
  5
2A38
  8
0
 10
0.0
 20
0.0
 30
0.0
 70
   128
 71
   -26
 72
    -8
 73
   -10
  0
VERTEX
  5
2A39
  8
0
 10
0.0
 20
0.0
 30
0.0
 70
   128
 71
    25
 72
   -26
 73
   -10
  0
SEQEND
  5
2F9F
  8
0
  0
POLYLINE
  5
2A3A
  8
0
 66
     1
 10
0.0
 20
0.0
 30
0.0
 70
    64
 71
    12
 72
    10
  0
VERTEX
  5
2A3B
  8
0
 10
256.7971176265636
 20
74.77483182341932
 30
-44.0000000000001
 70
   192
  0
VERTEX
  5
2A3C
  8
0
 10
252.4999999999999
 20
87.99999999999994
 30
-44.0000000000001
 70
   192
  0
VERTEX
  5
2A3D
  8
0
 10
252.4999999999999
 20
87.99999999999994
 30
-74.0000000000001
 70
   192
  0
VERTEX
  5
2A3E
  8
0
 10
256.7971176265636
 20
74.77483182341932
 30
-74.0000000000001
 70
   192
  0
VERTEX
  5
2A3F
  8
0
 10
293.2028823734362
 20
74.77483182341932
 30
-74.0000000000001
 70
   192
  0
VERTEX
  5
2A40
  8
0
 10
297.4999999999998
 20
87.99999999999994
 30
-74.0000000000001
 70
   192
  0
VERTEX
  5
2A41
  8
0
 10
297.4999999999999
 20
87.99999999999994
 30
-44.0000000000001
 70
   192
  0
VERTEX
  5
2A42
  8
0
 10
293.2028823734362
 20
74.77483182341932
 30
-44.0000000000001
 70
   192
  0
VERTEX
  5
2A43
  8
0
 10
268.0471176265636
 20
66.60122838335903
 30
-44.0000000000001
 70
   192
  0
VERTEX
  5
2A44
  8
0
 10
268.0471176265636
 20
66.60122838335903
 30
-74.0000000000001
 70
   192
  0
VERTEX
  5
2A45
  8
0
 10
281.9528823734362
 20
66.60122838335901
 30
-74.0000000000001
 70
   192
  0
VERTEX
  5
2A46
  8
0
 10
281.9528823734362
 20
66.60122838335901
 30
-44.0000000000001
 70
   192
  0
VERTEX
  5
2A47
  8
0
 10
0.0
 20
0.0
 30
0.0
 70
   128
 71
     1
 72
     2
 73
    -3
  0
VERTEX
  5
2A48
  8
0
 10
0.0
 20
0.0
 30
0.0
 70
   128
 71
    -1
 72
     3
 73
     4
  0
VERTEX
  5
2A49
  8
0
 10
0.0
 20
0.0
 30
0.0
 70
   128
 71
     5
 72
     6
 73
    -7
  0
VERTEX
  5
2A4A
  8
0
 10
0.0
 20
0.0
 30
0.0
 70
   128
 71
    -5
 72
     7
 73
     8
  0
VERTEX
  5
2A4B
  8
0
 10
0.0
 20
0.0
 30
0.0
 70
   128
 71
     9
 72
    10
 73
   -11
  0
VERTEX
  5
2A4C
  8
0
 10
0.0
 20
0.0
 30
0.0
 70
   128
 71
    -9
 72
    11
 73
    12
  0
VERTEX
  5
2A4D
  8
0
 10
0.0
 20
0.0
 30
0.0
 70
   128
 71
     1
 72
     4
 73
   -10
  0
VERTEX
  5
2A4E
  8
0
 10
0.0
 20
0.0
 30
0.0
 70
   128
 71
    -1
 72
    10
 73
     9
  0
VERTEX
  5
2A4F
  8
0
 10
0.0
 20
0.0
 30
0.0
 70
   128
 71
    12
 72
    11
 73
    -5
  0
VERTEX
  5
2A50
  8
0
 10
0.0
 20
0.0
 30
0.0
 70
   128
 71
   -12
 72
     5
 73
     8
  0
SEQEND
  5
2FA0
  8
0
  0
POLYLINE
  5
2A51
  8
0
 66
     1
 10
0.0
 20
0.0
 30
0.0
 70
    64
 71
    10
 72
     8
  0
VERTEX
  5
2A52
  8
0
 10
252.4999999999999
 20
87.99999999999994
 30
-74.0000000000001
 70
   192
  0
VERTEX
  5
2A53
  8
0
 10
256.7971176265636
 20
74.77483182341932
 30
-74.0000000000001
 70
   192
  0
VERTEX
  5
2A54
  8
0
 10
268.0471176265636
 20
66.60122838335903
 30
-74.0000000000001
 70
   192
  0
VERTEX
  5
2A55
  8
0
 10
281.9528823734362
 20
66.60122838335901
 30
-74.0000000000001
 70
   192
  0
VERTEX
  5
2A56
  8
0
 10
293.2028823734362
 20
74.77483182341932
 30
-74.0000000000001
 70
   192
  0
VERTEX
  5
2A57
  8
0
 10
297.4999999999998
 20
87.99999999999994
 30
-74.0000000000001
 70
   192
  0
VERTEX
  5
2A58
  8
0
 10
293.2028823734362
 20
101.2251681765806
 30
-74.0000000000001
 70
   192
  0
VERTEX
  5
2A59
  8
0
 10
281.9528823734362
 20
109.3987716166409
 30
-74.0000000000001
 70
   192
  0
VERTEX
  5
2A5A
  8
0
 10
268.0471176265636
 20
109.3987716166409
 30
-74.0000000000001
 70
   192
  0
VERTEX
  5
2A5B
  8
0
 10
256.7971176265636
 20
101.2251681765806
 30
-74.0000000000001
 70
   192
  0
VERTEX
  5
2A5C
  8
0
 10
0.0
 20
0.0
 30
0.0
 70
   128
 71
     1
 72
    10
 73
    -9
  0
VERTEX
  5
2A5D
  8
0
 10
0.0
 20
0.0
 30
0.0
 70
   128
 71
    -1
 72
     9
 73
    -8
  0
VERTEX
  5
2A5E
  8
0
 10
0.0
 20
0.0
 30
0.0
 70
   128
 71
    -1
 72
     8
 73
    -7
  0
VERTEX
  5
2A5F
  8
0
 10
0.0
 20
0.0
 30
0.0
 70
   128
 71
    -1
 72
     7
 73
    -6
  0
VERTEX
  5
2A60
  8
0
 10
0.0
 20
0.0
 30
0.0
 70
   128
 71
    -1
 72
     6
 73
    -5
  0
VERTEX
  5
2A61
  8
0
 10
0.0
 20
0.0
 30
0.0
 70
   128
 71
    -1
 72
     5
 73
    -4
  0
VERTEX
  5
2A62
  8
0
 10
0.0
 20
0.0
 30
0.0
 70
   128
 71
    -1
 72
     4
 73
    -3
  0
VERTEX
  5
2A63
  8
0
 10
0.0
 20
0.0
 30
0.0
 70
   128
 71
    -1
 72
     3
 73
     2
  0
SEQEND
  5
2FA1
  8
0
  0
POLYLINE
  5
2A64
  8
0
 66
     1
 10
0.0
 20
0.0
 30
0.0
 70
    64
 71
    10
 72
     8
  0
VERTEX
  5
2A65
  8
0
 10
277.4999999999999
 20
87.99999999999994
 30
-43.00000000000011
 70
   192
  0
VERTEX
  5
2A66
  8
0
 10
272.4999999999999
 20
87.99999999999994
 30
-43.00000000000011
 70
   192
  0
VERTEX
  5
2A67
  8
0
 10
272.4999999999999
 20
87.99999999999994
 30
-42.00000000000011
 70
   192
  0
VERTEX
  5
2A68
  8
0
 10
277.4999999999999
 20
87.99999999999994
 30
-42.00000000000011
 70
   192
  0
VERTEX
  5
2A69
  8
0
 10
274.9999999999999
 20
90.49999999999994
 30
-42.00000000000011
 70
   192
  0
VERTEX
  5
2A6A
  8
0
 10
274.9999999999999
 20
90.49999999999994
 30
-43.00000000000011
 70
   192
  0
VERTEX
  5
2A6B
  8
0
 10
276.7677669529663
 20
89.76776695296631
 30
-42.00000000000011
 70
   192
  0
VERTEX
  5
2A6C
  8
0
 10
276.7677669529663
 20
89.76776695296631
 30
-43.00000000000011
 70
   192
  0
VERTEX
  5
2A6D
  8
0
 10
273.2322330470335
 20
89.76776695296631
 30
-42.00000000000011
 70
   192
  0
VERTEX
  5
2A6E
  8
0
 10
273.2322330470335
 20
89.76776695296631
 30
-43.00000000000011
 70
   192
  0
VERTEX
  5
2A6F
  8
0
 10
0.0
 20
0.0
 30
0.0
 70
   128
 71
     8
 72
     1
 73
    -4
  0
VERTEX
  5
2A70
  8
0
 10
0.0
 20
0.0
 30
0.0
 70
   128
 71
     7
 72
    -8
 73
     4
  0
VERTEX
  5
2A71
  8
0
 10
0.0
 20
0.0
 30
0.0
 70
   128
 71
     6
 72
     8
 73
    -7
  0
VERTEX
  5
2A72
  8
0
 10
0.0
 20
0.0
 30
0.0
 70
   128
 71
     5
 72
    -6
 73
     7
  0
VERTEX
  5
2A73
  8
0
 10
0.0
 20
0.0
 30
0.0
 70
   128
 71
    10
 72
     6
 73
    -5
  0
VERTEX
  5
2A74
  8
0
 10
0.0
 20
0.0
 30
0.0
 70
   128
 71
     9
 72
   -10
 73
     5
  0
VERTEX
  5
2A75
  8
0
 10
0.0
 20
0.0
 30
0.0
 70
   128
 71
     3
 72
     2
 73
   -10
  0
VERTEX
  5
2A76
  8
0
 10
0.0
 20
0.0
 30
0.0
 70
   128
 71
     9
 72
    -3
 73
    10
  0
SEQEND
  5
2FA2
  8
0
  0
POLYLINE
  5
2A77
  8
0
 66
     1
 10
0.0
 20
0.0
 30
0.0
 70
    64
 71
     8
 72
     6
  0
VERTEX
  5
2A78
  8
0
 10
277.4999999999999
 20
87.99999999999994
 30
-43.00000000000011
 70
   192
  0
VERTEX
  5
2A79
  8
0
 10
276.7677669529663
 20
89.76776695296631
 30
-43.00000000000011
 70
   192
  0
VERTEX
  5
2A7A
  8
0
 10
274.9999999999999
 20
90.49999999999994
 30
-43.00000000000011
 70
   192
  0
VERTEX
  5
2A7B
  8
0
 10
273.2322330470335
 20
89.76776695296631
 30
-43.00000000000011
 70
   192
  0
VERTEX
  5
2A7C
  8
0
 10
272.4999999999999
 20
87.99999999999994
 30
-43.00000000000011
 70
   192
  0
VERTEX
  5
2A7D
  8
0
 10
273.2322330470335
 20
86.23223304703357
 30
-43.00000000000011
 70
   192
  0
VERTEX
  5
2A7E
  8
0
 10
274.9999999999999
 20
85.49999999999994
 30
-43.00000000000011
 70
   192
  0
VERTEX
  5
2A7F
  8
0
 10
276.7677669529663
 20
86.23223304703357
 30
-43.00000000000011
 70
   192
  0
VERTEX
  5
2A80
  8
0
 10
0.0
 20
0.0
 30
0.0
 70
   128
 71
     7
 72
     8
 73
    -1
  0
VERTEX
  5
2A81
  8
0
 10
0.0
 20
0.0
 30
0.0
 70
   128
 71
     6
 72
    -7
 73
    -1
  0
VERTEX
  5
2A82
  8
0
 10
0.0
 20
0.0
 30
0.0
 70
   128
 71
     5
 72
    -6
 73
    -1
  0
VERTEX
  5
2A83
  8
0
 10
0.0
 20
0.0
 30
0.0
 70
   128
 71
     4
 72
    -5
 73
    -1
  0
VERTEX
  5
2A84
  8
0
 10
0.0
 20
0.0
 30
0.0
 70
   128
 71
     3
 72
    -4
 73
    -1
  0
VERTEX
  5
2A85
  8
0
 10
0.0
 20
0.0
 30
0.0
 70
   128
 71
     2
 72
    -3
 73
     1
  0
SEQEND
  5
2FA3
  8
0
  0
POLYLINE
  5
2A86
  8
0
 66
     1
 10
0.0
 20
0.0
 30
0.0
 70
    64
 71
    10
 72
     8
  0
VERTEX
  5
2A87
  8
0
 10
287.9999999999999
 20
87.99999999999994
 30
-43.00000000000011
 70
   192
  0
VERTEX
  5
2A88
  8
0
 10
281.9999999999999
 20
87.99999999999994
 30
-43.00000000000011
 70
   192
  0
VERTEX
  5
2A89
  8
0
 10
281.9999999999999
 20
87.99999999999994
 30
-42.00000000000011
 70
   192
  0
VERTEX
  5
2A8A
  8
0
 10
287.9999999999999
 20
87.99999999999994
 30
-42.00000000000011
 70
   192
  0
VERTEX
  5
2A8B
  8
0
 10
284.9999999999999
 20
90.99999999999994
 30
-42.00000000000011
 70
   192
  0
VERTEX
  5
2A8C
  8
0
 10
284.9999999999999
 20
90.99999999999994
 30
-43.00000000000011
 70
   192
  0
VERTEX
  5
2A8D
  8
0
 10
287.1213203435596
 20
90.12132034355959
 30
-42.00000000000011
 70
   192
  0
VERTEX
  5
2A8E
  8
0
 10
287.1213203435596
 20
90.12132034355959
 30
-43.00000000000011
 70
   192
  0
VERTEX
  5
2A8F
  8
0
 10
282.8786796564403
 20
90.12132034355959
 30
-42.00000000000011
 70
   192
  0
VERTEX
  5
2A90
  8
0
 10
282.8786796564403
 20
90.12132034355959
 30
-43.00000000000011
 70
   192
  0
VERTEX
  5
2A91
  8
0
 10
0.0
 20
0.0
 30
0.0
 70
   128
 71
     8
 72
     1
 73
    -4
  0
VERTEX
  5
2A92
  8
0
 10
0.0
 20
0.0
 30
0.0
 70
   128
 71
     7
 72
    -8
 73
     4
  0
VERTEX
  5
2A93
  8
0
 10
0.0
 20
0.0
 30
0.0
 70
   128
 71
     6
 72
     8
 73
    -7
  0
VERTEX
  5
2A94
  8
0
 10
0.0
 20
0.0
 30
0.0
 70
   128
 71
     5
 72
    -6
 73
     7
  0
VERTEX
  5
2A95
  8
0
 10
0.0
 20
0.0
 30
0.0
 70
   128
 71
    10
 72
     6
 73
    -5
  0
VERTEX
  5
2A96
  8
0
 10
0.0
 20
0.0
 30
0.0
 70
   128
 71
     9
 72
   -10
 73
     5
  0
VERTEX
  5
2A97
  8
0
 10
0.0
 20
0.0
 30
0.0
 70
   128
 71
     3
 72
     2
 73
   -10
  0
VERTEX
  5
2A98
  8
0
 10
0.0
 20
0.0
 30
0.0
 70
   128
 71
     9
 72
    -3
 73
    10
  0
SEQEND
  5
2FA4
  8
0
  0
POLYLINE
  5
2A99
  8
0
 66
     1
 10
0.0
 20
0.0
 30
0.0
 70
    64
 71
     8
 72
     6
  0
VERTEX
  5
2A9A
  8
0
 10
287.9999999999999
 20
87.99999999999994
 30
-43.00000000000011
 70
   192
  0
VERTEX
  5
2A9B
  8
0
 10
287.1213203435596
 20
90.12132034355959
 30
-43.00000000000011
 70
   192
  0
VERTEX
  5
2A9C
  8
0
 10
284.9999999999999
 20
90.99999999999994
 30
-43.00000000000011
 70
   192
  0
VERTEX
  5
2A9D
  8
0
 10
282.8786796564403
 20
90.12132034355959
 30
-43.00000000000011
 70
   192
  0
VERTEX
  5
2A9E
  8
0
 10
281.9999999999999
 20
87.99999999999994
 30
-43.00000000000011
 70
   192
  0
VERTEX
  5
2A9F
  8
0
 10
282.8786796564403
 20
85.8786796564403
 30
-43.00000000000011
 70
   192
  0
VERTEX
  5
2AA0
  8
0
 10
284.9999999999999
 20
84.99999999999994
 30
-43.00000000000011
 70
   192
  0
VERTEX
  5
2AA1
  8
0
 10
287.1213203435596
 20
85.8786796564403
 30
-43.00000000000011
 70
   192
  0
VERTEX
  5
2AA2
  8
0
 10
0.0
 20
0.0
 30
0.0
 70
   128
 71
     7
 72
     8
 73
    -1
  0
VERTEX
  5
2AA3
  8
0
 10
0.0
 20
0.0
 30
0.0
 70
   128
 71
     6
 72
    -7
 73
    -1
  0
VERTEX
  5
2AA4
  8
0
 10
0.0
 20
0.0
 30
0.0
 70
   128
 71
     5
 72
    -6
 73
    -1
  0
VERTEX
  5
2AA5
  8
0
 10
0.0
 20
0.0
 30
0.0
 70
   128
 71
     4
 72
    -5
 73
    -1
  0
VERTEX
  5
2AA6
  8
0
 10
0.0
 20
0.0
 30
0.0
 70
   128
 71
     3
 72
    -4
 73
    -1
  0
VERTEX
  5
2AA7
  8
0
 10
0.0
 20
0.0
 30
0.0
 70
   128
 71
     2
 72
    -3
 73
     1
  0
SEQEND
  5
2FA5
  8
0
  0
POLYLINE
  5
2AA8
  8
0
 66
     1
 10
0.0
 20
0.0
 30
0.0
 70
    64
 71
    10
 72
     8
  0
VERTEX
  5
2AA9
  8
0
 10
267.9999999999999
 20
87.99999999999994
 30
-43.00000000000011
 70
   192
  0
VERTEX
  5
2AAA
  8
0
 10
261.9999999999999
 20
87.99999999999994
 30
-43.00000000000011
 70
   192
  0
VERTEX
  5
2AAB
  8
0
 10
261.9999999999999
 20
87.99999999999994
 30
-42.00000000000011
 70
   192
  0
VERTEX
  5
2AAC
  8
0
 10
267.9999999999999
 20
87.99999999999994
 30
-42.00000000000011
 70
   192
  0
VERTEX
  5
2AAD
  8
0
 10
264.9999999999999
 20
90.99999999999994
 30
-42.00000000000011
 70
   192
  0
VERTEX
  5
2AAE
  8
0
 10
264.9999999999999
 20
90.99999999999994
 30
-43.00000000000011
 70
   192
  0
VERTEX
  5
2AAF
  8
0
 10
267.1213203435595
 20
90.12132034355959
 30
-42.00000000000011
 70
   192
  0
VERTEX
  5
2AB0
  8
0
 10
267.1213203435595
 20
90.12132034355959
 30
-43.00000000000011
 70
   192
  0
VERTEX
  5
2AB1
  8
0
 10
262.8786796564402
 20
90.12132034355959
 30
-42.00000000000011
 70
   192
  0
VERTEX
  5
2AB2
  8
0
 10
262.8786796564402
 20
90.12132034355959
 30
-43.00000000000011
 70
   192
  0
VERTEX
  5
2AB3
  8
0
 10
0.0
 20
0.0
 30
0.0
 70
   128
 71
     8
 72
     1
 73
    -4
  0
VERTEX
  5
2AB4
  8
0
 10
0.0
 20
0.0
 30
0.0
 70
   128
 71
     7
 72
    -8
 73
     4
  0
VERTEX
  5
2AB5
  8
0
 10
0.0
 20
0.0
 30
0.0
 70
   128
 71
     6
 72
     8
 73
    -7
  0
VERTEX
  5
2AB6
  8
0
 10
0.0
 20
0.0
 30
0.0
 70
   128
 71
     5
 72
    -6
 73
     7
  0
VERTEX
  5
2AB7
  8
0
 10
0.0
 20
0.0
 30
0.0
 70
   128
 71
    10
 72
     6
 73
    -5
  0
VERTEX
  5
2AB8
  8
0
 10
0.0
 20
0.0
 30
0.0
 70
   128
 71
     9
 72
   -10
 73
     5
  0
VERTEX
  5
2AB9
  8
0
 10
0.0
 20
0.0
 30
0.0
 70
   128
 71
     3
 72
     2
 73
   -10
  0
VERTEX
  5
2ABA
  8
0
 10
0.0
 20
0.0
 30
0.0
 70
   128
 71
     9
 72
    -3
 73
    10
  0
SEQEND
  5
2FA6
  8
0
  0
POLYLINE
  5
2ABB
  8
0
 66
     1
 10
0.0
 20
0.0
 30
0.0
 70
    64
 71
     8
 72
     6
  0
VERTEX
  5
2ABC
  8
0
 10
267.9999999999999
 20
87.99999999999994
 30
-43.00000000000011
 70
   192
  0
VERTEX
  5
2ABD
  8
0
 10
267.1213203435595
 20
90.12132034355959
 30
-43.00000000000011
 70
   192
  0
VERTEX
  5
2ABE
  8
0
 10
264.9999999999999
 20
90.99999999999994
 30
-43.00000000000011
 70
   192
  0
VERTEX
  5
2ABF
  8
0
 10
262.8786796564402
 20
90.12132034355959
 30
-43.00000000000011
 70
   192
  0
VERTEX
  5
2AC0
  8
0
 10
261.9999999999999
 20
87.99999999999994
 30
-43.00000000000011
 70
   192
  0
VERTEX
  5
2AC1
  8
0
 10
262.8786796564402
 20
85.8786796564403
 30
-43.00000000000011
 70
   192
  0
VERTEX
  5
2AC2
  8
0
 10
264.9999999999999
 20
84.99999999999994
 30
-43.00000000000011
 70
   192
  0
VERTEX
  5
2AC3
  8
0
 10
267.1213203435595
 20
85.8786796564403
 30
-43.00000000000011
 70
   192
  0
VERTEX
  5
2AC4
  8
0
 10
0.0
 20
0.0
 30
0.0
 70
   128
 71
     7
 72
     8
 73
    -1
  0
VERTEX
  5
2AC5
  8
0
 10
0.0
 20
0.0
 30
0.0
 70
   128
 71
     6
 72
    -7
 73
    -1
  0
VERTEX
  5
2AC6
  8
0
 10
0.0
 20
0.0
 30
0.0
 70
   128
 71
     5
 72
    -6
 73
    -1
  0
VERTEX
  5
2AC7
  8
0
 10
0.0
 20
0.0
 30
0.0
 70
   128
 71
     4
 72
    -5
 73
    -1
  0
VERTEX
  5
2AC8
  8
0
 10
0.0
 20
0.0
 30
0.0
 70
   128
 71
     3
 72
    -4
 73
    -1
  0
VERTEX
  5
2AC9
  8
0
 10
0.0
 20
0.0
 30
0.0
 70
   128
 71
     2
 72
    -3
 73
     1
  0
SEQEND
  5
2FA7
  8
0
  0
POLYLINE
  5
2ACA
  8
0
 66
     1
 10
0.0
 20
0.0
 30
0.0
 70
    64
 71
    10
 72
     8
  0
VERTEX
  5
2ACB
  8
0
 10
276.9999999999999
 20
102.9999999999999
 30
-39.00000000000011
 70
   192
  0
VERTEX
  5
2ACC
  8
0
 10
272.9999999999999
 20
102.9999999999999
 30
-39.00000000000011
 70
   192
  0
VERTEX
  5
2ACD
  8
0
 10
272.9999999999999
 20
102.9999999999999
 30
-42.00000000000011
 70
   192
  0
VERTEX
  5
2ACE
  8
0
 10
276.9999999999999
 20
102.9999999999999
 30
-42.00000000000011
 70
   192
  0
VERTEX
  5
2ACF
  8
0
 10
274.9999999999999
 20
100.9999999999999
 30
-42.00000000000011
 70
   192
  0
VERTEX
  5
2AD0
  8
0
 10
274.9999999999999
 20
100.9999999999999
 30
-39.00000000000011
 70
   192
  0
VERTEX
  5
2AD1
  8
0
 10
276.414213562373
 20
101.5857864376269
 30
-42.00000000000011
 70
   192
  0
VERTEX
  5
2AD2
  8
0
 10
276.414213562373
 20
101.5857864376269
 30
-39.00000000000011
 70
   192
  0
VERTEX
  5
2AD3
  8
0
 10
273.5857864376268
 20
101.5857864376269
 30
-42.00000000000011
 70
   192
  0
VERTEX
  5
2AD4
  8
0
 10
273.5857864376268
 20
101.5857864376269
 30
-39.00000000000011
 70
   192
  0
VERTEX
  5
2AD5
  8
0
 10
0.0
 20
0.0
 30
0.0
 70
   128
 71
     8
 72
     7
 73
    -4
  0
VERTEX
  5
2AD6
  8
0
 10
0.0
 20
0.0
 30
0.0
 70
   128
 71
    -8
 72
     4
 73
     1
  0
VERTEX
  5
2AD7
  8
0
 10
0.0
 20
0.0
 30
0.0
 70
   128
 71
     6
 72
     5
 73
    -7
  0
VERTEX
  5
2AD8
  8
0
 10
0.0
 20
0.0
 30
0.0
 70
   128
 71
    -6
 72
     7
 73
     8
  0
VERTEX
  5
2AD9
  8
0
 10
0.0
 20
0.0
 30
0.0
 70
   128
 71
    10
 72
     9
 73
    -5
  0
VERTEX
  5
2ADA
  8
0
 10
0.0
 20
0.0
 30
0.0
 70
   128
 71
   -10
 72
     5
 73
     6
  0
VERTEX
  5
2ADB
  8
0
 10
0.0
 20
0.0
 30
0.0
 70
   128
 71
     2
 72
     3
 73
    -9
  0
VERTEX
  5
2ADC
  8
0
 10
0.0
 20
0.0
 30
0.0
 70
   128
 71
    -2
 72
     9
 73
    10
  0
SEQEND
  5
2FA8
  8
0
  0
POLYLINE
  5
2ADD
  8
0
 66
     1
 10
0.0
 20
0.0
 30
0.0
 70
    64
 71
     8
 72
     6
  0
VERTEX
  5
2ADE
  8
0
 10
272.9999999999999
 20
102.9999999999999
 30
-39.00000000000011
 70
   192
  0
VERTEX
  5
2ADF
  8
0
 10
273.5857864376268
 20
101.5857864376269
 30
-39.00000000000011
 70
   192
  0
VERTEX
  5
2AE0
  8
0
 10
274.9999999999999
 20
100.9999999999999
 30
-39.00000000000011
 70
   192
  0
VERTEX
  5
2AE1
  8
0
 10
276.414213562373
 20
101.5857864376269
 30
-39.00000000000011
 70
   192
  0
VERTEX
  5
2AE2
  8
0
 10
276.9999999999999
 20
102.9999999999999
 30
-39.00000000000011
 70
   192
  0
VERTEX
  5
2AE3
  8
0
 10
276.414213562373
 20
104.414213562373
 30
-39.00000000000011
 70
   192
  0
VERTEX
  5
2AE4
  8
0
 10
274.9999999999999
 20
104.9999999999999
 30
-39.00000000000011
 70
   192
  0
VERTEX
  5
2AE5
  8
0
 10
273.5857864376268
 20
104.414213562373
 30
-39.00000000000011
 70
   192
  0
VERTEX
  5
2AE6
  8
0
 10
0.0
 20
0.0
 30
0.0
 70
   128
 71
     7
 72
     8
 73
    -1
  0
VERTEX
  5
2AE7
  8
0
 10
0.0
 20
0.0
 30
0.0
 70
   128
 71
     6
 72
    -7
 73
    -1
  0
VERTEX
  5
2AE8
  8
0
 10
0.0
 20
0.0
 30
0.0
 70
   128
 71
     5
 72
    -6
 73
    -1
  0
VERTEX
  5
2AE9
  8
0
 10
0.0
 20
0.0
 30
0.0
 70
   128
 71
     4
 72
    -5
 73
    -1
  0
VERTEX
  5
2AEA
  8
0
 10
0.0
 20
0.0
 30
0.0
 70
   128
 71
     3
 72
    -4
 73
    -1
  0
VERTEX
  5
2AEB
  8
0
 10
0.0
 20
0.0
 30
0.0
 70
   128
 71
     2
 72
    -3
 73
     1
  0
SEQEND
  5
2FA9
  8
0
  0
ENDBLK
  5
2F91
  8
0
  0
BLOCK
  8
0
  2
*X10
 70
     1
 10
0.0
 20
0.0
 30
0.0
  3
*X10
  1

  0
POLYLINE
  5
2AED
  8
0
 66
     1
 10
0.0
 20
0.0
 30
0.0
 70
    64
 71
     4
 72
     2
  0
VERTEX
  5
2AEE
  8
0
 10
-384.9999999999999
 20
682.0
 30
-62.00000000000001
 70
   192
  0
VERTEX
  5
2AEF
  8
0
 10
-384.9999999999999
 20
682.0
 30
-2.000000000000016
 70
   192
  0
VERTEX
  5
2AF0
  8
0
 10
-385.0
 20
646.9999999999998
 30
-1.99999999999995
 70
   192
  0
VERTEX
  5
2AF1
  8
0
 10
-384.9999999999999
 20
622.0000000000001
 30
-62.00000000000001
 70
   192
  0
VERTEX
  5
2AF2
  8
0
 10
0.0
 20
0.0
 30
0.0
 70
   128
 71
     1
 72
     4
 73
    -3
  0
VERTEX
  5
2AF3
  8
0
 10
0.0
 20
0.0
 30
0.0
 70
   128
 71
    -1
 72
     3
 73
     2
  0
SEQEND
  5
2FAC
  8
0
  0
POLYLINE
  5
2AF4
  8
0
 66
     1
 10
0.0
 20
0.0
 30
0.0
 70
    64
 71
     4
 72
     2
  0
VERTEX
  5
2AF5
  8
0
 10
-364.9999999999999
 20
682.0
 30
-2.000000000000016
 70
   192
  0
VERTEX
  5
2AF6
  8
0
 10
-364.9999999999999
 20
682.0
 30
-62.00000000000001
 70
   192
  0
VERTEX
  5
2AF7
  8
0
 10
-364.9999999999999
 20
622.0000000000001
 30
-62.0
 70
   192
  0
VERTEX
  5
2AF8
  8
0
 10
-364.9999999999999
 20
646.9999999999998
 30
-2.000000000000016
 70
   192
  0
VERTEX
  5
2AF9
  8
0
 10
0.0
 20
0.0
 30
0.0
 70
   128
 71
     1
 72
     4
 73
    -3
  0
VERTEX
  5
2AFA
  8
0
 10
0.0
 20
0.0
 30
0.0
 70
   128
 71
    -1
 72
     3
 73
     2
  0
SEQEND
  5
2FAD
  8
0
  0
POLYLINE
  5
2AFB
  8
0
 66
     1
 10
0.0
 20
0.0
 30
0.0
 70
    64
 71
     4
 72
     2
  0
VERTEX
  5
2AFC
  8
0
 10
-364.9999999999999
 20
682.0
 30
-62.00000000000001
 70
   192
  0
VERTEX
  5
2AFD
  8
0
 10
-364.9999999999999
 20
682.0
 30
-2.000000000000016
 70
   192
  0
VERTEX
  5
2AFE
  8
0
 10
-384.9999999999999
 20
682.0
 30
-2.000000000000016
 70
   192
  0
VERTEX
  5
2AFF
  8
0
 10
-384.9999999999999
 20
682.0
 30
-62.00000000000001
 70
   192
  0
VERTEX
  5
2B00
  8
0
 10
0.0
 20
0.0
 30
0.0
 70
   128
 71
     1
 72
     4
 73
    -3
  0
VERTEX
  5
2B01
  8
0
 10
0.0
 20
0.0
 30
0.0
 70
   128
 71
    -1
 72
     3
 73
     2
  0
SEQEND
  5
2FAE
  8
0
  0
POLYLINE
  5
2B02
  8
0
 66
     1
 10
0.0
 20
0.0
 30
0.0
 70
    64
 71
     4
 72
     2
  0
VERTEX
  5
2B03
  8
0
 10
-385.0
 20
646.9999999999998
 30
-1.999999999999946
 70
   192
  0
VERTEX
  5
2B04
  8
0
 10
-364.9999999999999
 20
646.9999999999998
 30
-1.999999999999946
 70
   192
  0
VERTEX
  5
2B05
  8
0
 10
-364.9999999999999
 20
682.0
 30
-2.000000000000016
 70
   192
  0
VERTEX
  5
2B06
  8
0
 10
-384.9999999999999
 20
682.0
 30
-2.000000000000016
 70
   192
  0
VERTEX
  5
2B07
  8
0
 10
0.0
 20
0.0
 30
0.0
 70
   128
 71
     3
 72
     4
 73
    -1
  0
VERTEX
  5
2B08
  8
0
 10
0.0
 20
0.0
 30
0.0
 70
   128
 71
     2
 72
    -3
 73
     1
  0
SEQEND
  5
2FAF
  8
0
  0
POLYLINE
  5
2B09
  8
0
 66
     1
 10
0.0
 20
0.0
 30
0.0
 70
    64
 71
     4
 72
     2
  0
VERTEX
  5
2B0A
  8
0
 10
-384.9999999999999
 20
622.0000000000001
 30
-62.00000000000001
 70
   192
  0
VERTEX
  5
2B0B
  8
0
 10
-364.9999999999999
 20
622.0000000000001
 30
-62.00000000000001
 70
   192
  0
VERTEX
  5
2B0C
  8
0
 10
-364.9999999999999
 20
682.0
 30
-62.00000000000001
 70
   192
  0
VERTEX
  5
2B0D
  8
0
 10
-384.9999999999999
 20
682.0
 30
-62.00000000000001
 70
   192
  0
VERTEX
  5
2B0E
  8
0
 10
0.0
 20
0.0
 30
0.0
 70
   128
 71
     1
 72
     4
 73
    -3
  0
VERTEX
  5
2B0F
  8
0
 10
0.0
 20
0.0
 30
0.0
 70
   128
 71
    -1
 72
     3
 73
     2
  0
SEQEND
  5
2FB0
  8
0
  0
POLYLINE
  5
2B10
  8
0
 66
     1
 10
0.0
 20
0.0
 30
0.0
 70
    64
 71
     4
 72
     2
  0
VERTEX
  5
2B11
  8
0
 10
-364.9999999999999
 20
646.9999999999998
 30
-1.999999999999938
 70
   192
  0
VERTEX
  5
2B12
  8
0
 10
-364.9999999999999
 20
622.0000000000001
 30
-62.00000000000001
 70
   192
  0
VERTEX
  5
2B13
  8
0
 10
-385.0
 20
622.0000000000001
 30
-62.00000000000002
 70
   192
  0
VERTEX
  5
2B14
  8
0
 10
-385.0
 20
646.9999999999998
 30
-1.999999999999946
 70
   192
  0
VERTEX
  5
2B15
  8
0
 10
0.0
 20
0.0
 30
0.0
 70
   128
 71
     1
 72
     4
 73
    -3
  0
VERTEX
  5
2B16
  8
0
 10
0.0
 20
0.0
 30
0.0
 70
   128
 71
    -1
 72
     3
 73
     2
  0
SEQEND
  5
2FB1
  8
0
  0
ENDBLK
  5
2FAB
  8
0
  0
BLOCK
  8
0
  2
*X11
 70
     1
 10
0.0
 20
0.0
 30
0.0
  3
*X11
  1

  0
POLYLINE
  5
2B18
  8
0
 66
     1
 10
0.0
 20
0.0
 30
0.0
 70
    64
 71
     4
 72
     2
  0
VERTEX
  5
2B19
  8
0
 10
384.9999999999999
 20
682.0
 30
-62.00000000000001
 70
   192
  0
VERTEX
  5
2B1A
  8
0
 10
384.9999999999999
 20
682.0
 30
-2.000000000000016
 70
   192
  0
VERTEX
  5
2B1B
  8
0
 10
364.9999999999999
 20
682.0000000000001
 30
-2.000000000000016
 70
   192
  0
VERTEX
  5
2B1C
  8
0
 10
364.9999999999999
 20
682.0000000000001
 30
-62.00000000000001
 70
   192
  0
VERTEX
  5
2B1D
  8
0
 10
0.0
 20
0.0
 30
0.0
 70
   128
 71
     1
 72
     4
 73
    -3
  0
VERTEX
  5
2B1E
  8
0
 10
0.0
 20
0.0
 30
0.0
 70
   128
 71
    -1
 72
     3
 73
     2
  0
SEQEND
  5
2FB4
  8
0
  0
POLYLINE
  5
2B1F
  8
0
 66
     1
 10
0.0
 20
0.0
 30
0.0
 70
    64
 71
     4
 72
     2
  0
VERTEX
  5
2B20
  8
0
 10
364.9999999999999
 20
682.0000000000001
 30
-62.00000000000001
 70
   192
  0
VERTEX
  5
2B21
  8
0
 10
364.9999999999999
 20
682.0000000000001
 30
-2.000000000000016
 70
   192
  0
VERTEX
  5
2B22
  8
0
 10
364.9999999999999
 20
646.9999999999998
 30
-1.999999999999931
 70
   192
  0
VERTEX
  5
2B23
  8
0
 10
364.9999999999999
 20
622.0000000000002
 30
-62.00000000000001
 70
   192
  0
VERTEX
  5
2B24
  8
0
 10
0.0
 20
0.0
 30
0.0
 70
   128
 71
     1
 72
     4
 73
    -3
  0
VERTEX
  5
2B25
  8
0
 10
0.0
 20
0.0
 30
0.0
 70
   128
 71
    -1
 72
     3
 73
     2
  0
SEQEND
  5
2FB5
  8
0
  0
POLYLINE
  5
2B26
  8
0
 66
     1
 10
0.0
 20
0.0
 30
0.0
 70
    64
 71
     4
 72
     2
  0
VERTEX
  5
2B27
  8
0
 10
384.9999999999999
 20
682.0
 30
-2.000000000000016
 70
   192
  0
VERTEX
  5
2B28
  8
0
 10
384.9999999999999
 20
682.0
 30
-62.00000000000001
 70
   192
  0
VERTEX
  5
2B29
  8
0
 10
385.0
 20
622.0000000000001
 30
-62.00000000000002
 70
   192
  0
VERTEX
  5
2B2A
  8
0
 10
384.9999999999999
 20
646.9999999999998
 30
-2.000000000000016
 70
   192
  0
VERTEX
  5
2B2B
  8
0
 10
0.0
 20
0.0
 30
0.0
 70
   128
 71
     1
 72
     4
 73
    -3
  0
VERTEX
  5
2B2C
  8
0
 10
0.0
 20
0.0
 30
0.0
 70
   128
 71
    -1
 72
     3
 73
     2
  0
SEQEND
  5
2FB6
  8
0
  0
POLYLINE
  5
2B2D
  8
0
 66
     1
 10
0.0
 20
0.0
 30
0.0
 70
    64
 71
     4
 72
     2
  0
VERTEX
  5
2B2E
  8
0
 10
364.9999999999999
 20
646.9999999999998
 30
-1.999999999999946
 70
   192
  0
VERTEX
  5
2B2F
  8
0
 10
384.9999999999999
 20
646.9999999999998
 30
-1.999999999999946
 70
   192
  0
VERTEX
  5
2B30
  8
0
 10
384.9999999999999
 20
682.0
 30
-2.000000000000016
 70
   192
  0
VERTEX
  5
2B31
  8
0
 10
364.9999999999999
 20
682.0000000000001
 30
-2.000000000000016
 70
   192
  0
VERTEX
  5
2B32
  8
0
 10
0.0
 20
0.0
 30
0.0
 70
   128
 71
     3
 72
     4
 73
    -1
  0
VERTEX
  5
2B33
  8
0
 10
0.0
 20
0.0
 30
0.0
 70
   128
 71
     2
 72
    -3
 73
     1
  0
SEQEND
  5
2FB7
  8
0
  0
POLYLINE
  5
2B34
  8
0
 66
     1
 10
0.0
 20
0.0
 30
0.0
 70
    64
 71
     4
 72
     2
  0
VERTEX
  5
2B35
  8
0
 10
364.9999999999999
 20
682.0000000000001
 30
-62.00000000000001
 70
   192
  0
VERTEX
  5
2B36
  8
0
 10
364.9999999999999
 20
622.0000000000002
 30
-62.00000000000001
 70
   192
  0
VERTEX
  5
2B37
  8
0
 10
384.9999999999999
 20
622.0000000000001
 30
-62.00000000000001
 70
   192
  0
VERTEX
  5
2B38
  8
0
 10
384.9999999999999
 20
682.0
 30
-62.00000000000001
 70
   192
  0
VERTEX
  5
2B39
  8
0
 10
0.0
 20
0.0
 30
0.0
 70
   128
 71
     1
 72
     4
 73
    -3
  0
VERTEX
  5
2B3A
  8
0
 10
0.0
 20
0.0
 30
0.0
 70
   128
 71
    -1
 72
     3
 73
     2
  0
SEQEND
  5
2FB8
  8
0
  0
POLYLINE
  5
2B3B
  8
0
 66
     1
 10
0.0
 20
0.0
 30
0.0
 70
    64
 71
     4
 72
     2
  0
VERTEX
  5
2B3C
  8
0
 10
364.9999999999999
 20
622.0000000000001
 30
-61.99999999999996
 70
   192
  0
VERTEX
  5
2B3D
  8
0
 10
364.9999999999999
 20
646.9999999999998
 30
-1.999999999999946
 70
   192
  0
VERTEX
  5
2B3E
  8
0
 10
384.9999999999999
 20
646.9999999999998
 30
-1.99999999999995
 70
   192
  0
VERTEX
  5
2B3F
  8
0
 10
385.0
 20
622.0000000000002
 30
-62.00000000000001
 70
   192
  0
VERTEX
  5
2B40
  8
0
 10
0.0
 20
0.0
 30
0.0
 70
   128
 71
     1
 72
     4
 73
    -3
  0
VERTEX
  5
2B41
  8
0
 10
0.0
 20
0.0
 30
0.0
 70
   128
 71
    -1
 72
     3
 73
     2
  0
SEQEND
  5
2FB9
  8
0
  0
ENDBLK
  5
2FB3
  8
0
  0
BLOCK
  8
0
  2
*X12
 70
     1
 10
0.0
 20
0.0
 30
0.0
  3
*X12
  1

  0
POLYLINE
  5
2B43
  8
0
 66
     1
 10
0.0
 20
0.0
 30
0.0
 70
    64
 71
     4
 72
     2
  0
VERTEX
  5
2B44
  8
0
 10
-9.0
 20
682.0
 30
61.00000000000023
 70
   192
  0
VERTEX
  5
2B45
  8
0
 10
-9.0
 20
18.0
 30
61.00000000000023
 70
   192
  0
VERTEX
  5
2B46
  8
0
 10
-9.0
 20
18.0
 30
-61.99999999999977
 70
   192
  0
VERTEX
  5
2B47
  8
0
 10
-9.0
 20
682.0
 30
-61.99999999999977
 70
   192
  0
VERTEX
  5
2B48
  8
0
 10
0.0
 20
0.0
 30
0.0
 70
   128
 71
     1
 72
     4
 73
    -3
  0
VERTEX
  5
2B49
  8
0
 10
0.0
 20
0.0
 30
0.0
 70
   128
 71
    -1
 72
     3
 73
     2
  0
SEQEND
  5
2FBC
  8
0
  0
POLYLINE
  5
2B4A
  8
0
 66
     1
 10
0.0
 20
0.0
 30
0.0
 70
    64
 71
     4
 72
     2
  0
VERTEX
  5
2B4B
  8
0
 10
9.000000000000002
 20
682.0
 30
61.00000000000023
 70
   192
  0
VERTEX
  5
2B4C
  8
0
 10
9.000000000000002
 20
18.0
 30
61.00000000000023
 70
   192
  0
VERTEX
  5
2B4D
  8
0
 10
-9.0
 20
18.0
 30
61.00000000000023
 70
   192
  0
VERTEX
  5
2B4E
  8
0
 10
-8.999999999999998
 20
682.0
 30
61.00000000000023
 70
   192
  0
VERTEX
  5
2B4F
  8
0
 10
0.0
 20
0.0
 30
0.0
 70
   128
 71
     1
 72
     4
 73
    -3
  0
VERTEX
  5
2B50
  8
0
 10
0.0
 20
0.0
 30
0.0
 70
   128
 71
    -1
 72
     3
 73
     2
  0
SEQEND
  5
2FBD
  8
0
  0
POLYLINE
  5
2B51
  8
0
 66
     1
 10
0.0
 20
0.0
 30
0.0
 70
    64
 71
     4
 72
     2
  0
VERTEX
  5
2B52
  8
0
 10
9.000000000000002
 20
682.0
 30
-61.99999999999977
 70
   192
  0
VERTEX
  5
2B53
  8
0
 10
9.000000000000002
 20
18.0
 30
-61.99999999999977
 70
   192
  0
VERTEX
  5
2B54
  8
0
 10
9.000000000000002
 20
18.0
 30
61.00000000000023
 70
   192
  0
VERTEX
  5
2B55
  8
0
 10
9.000000000000002
 20
682.0
 30
61.00000000000023
 70
   192
  0
VERTEX
  5
2B56
  8
0
 10
0.0
 20
0.0
 30
0.0
 70
   128
 71
     1
 72
     4
 73
    -3
  0
VERTEX
  5
2B57
  8
0
 10
0.0
 20
0.0
 30
0.0
 70
   128
 71
    -1
 72
     3
 73
     2
  0
SEQEND
  5
2FBE
  8
0
  0
POLYLINE
  5
2B58
  8
0
 66
     1
 10
0.0
 20
0.0
 30
0.0
 70
    64
 71
     4
 72
     2
  0
VERTEX
  5
2B59
  8
0
 10
-9.0
 20
682.0
 30
-61.99999999999977
 70
   192
  0
VERTEX
  5
2B5A
  8
0
 10
-8.999999999999998
 20
18.0
 30
-61.99999999999977
 70
   192
  0
VERTEX
  5
2B5B
  8
0
 10
9.000000000000002
 20
18.0
 30
-61.99999999999977
 70
   192
  0
VERTEX
  5
2B5C
  8
0
 10
9.000000000000002
 20
682.0
 30
-61.99999999999977
 70
   192
  0
VERTEX
  5
2B5D
  8
0
 10
0.0
 20
0.0
 30
0.0
 70
   128
 71
     1
 72
     4
 73
    -3
  0
VERTEX
  5
2B5E
  8
0
 10
0.0
 20
0.0
 30
0.0
 70
   128
 71
    -1
 72
     3
 73
     2
  0
SEQEND
  5
2FBF
  8
0
  0
POLYLINE
  5
2B5F
  8
0
 66
     1
 10
0.0
 20
0.0
 30
0.0
 70
    64
 71
     4
 72
     2
  0
VERTEX
  5
2B60
  8
0
 10
-8.999999999999998
 20
18.0
 30
61.00000000000023
 70
   192
  0
VERTEX
  5
2B61
  8
0
 10
9.000000000000002
 20
18.0
 30
61.00000000000023
 70
   192
  0
VERTEX
  5
2B62
  8
0
 10
9.000000000000002
 20
18.0
 30
-61.99999999999977
 70
   192
  0
VERTEX
  5
2B63
  8
0
 10
-9.0
 20
18.0
 30
-61.99999999999977
 70
   192
  0
VERTEX
  5
2B64
  8
0
 10
0.0
 20
0.0
 30
0.0
 70
   128
 71
     1
 72
     4
 73
    -3
  0
VERTEX
  5
2B65
  8
0
 10
0.0
 20
0.0
 30
0.0
 70
   128
 71
    -1
 72
     3
 73
     2
  0
SEQEND
  5
2FC0
  8
0
  0
POLYLINE
  5
2B66
  8
0
 66
     1
 10
0.0
 20
0.0
 30
0.0
 70
    64
 71
     4
 72
     2
  0
VERTEX
  5
2B67
  8
0
 10
9.000000000000002
 20
682.0
 30
-61.99999999999977
 70
   192
  0
VERTEX
  5
2B68
  8
0
 10
-8.999999999999998
 20
682.0
 30
-61.99999999999977
 70
   192
  0
VERTEX
  5
2B69
  8
0
 10
-9.0
 20
682.0
 30
61.00000000000023
 70
   192
  0
VERTEX
  5
2B6A
  8
0
 10
9.000000000000002
 20
682.0
 30
61.00000000000023
 70
   192
  0
VERTEX
  5
2B6B
  8
0
 10
0.0
 20
0.0
 30
0.0
 70
   128
 71
     3
 72
     4
 73
    -1
  0
VERTEX
  5
2B6C
  8
0
 10
0.0
 20
0.0
 30
0.0
 70
   128
 71
     2
 72
    -3
 73
     1
  0
SEQEND
  5
2FC1
  8
0
  0
ENDBLK
  5
2FBB
  8
0
  0
BLOCK
  8
0
  2
*X13
 70
     1
 10
0.0
 20
0.0
 30
0.0
  3
*X13
  1

  0
POLYLINE
  5
2B6E
  8
0
 66
     1
 10
0.0
 20
0.0
 30
0.0
 70
    64
 71
     4
 72
     2
  0
VERTEX
  5
2B6F
  8
0
 10
1.999999999999858
 20
700.5
 30
78.00000000000006
 70
   192
  0
VERTEX
  5
2B70
  8
0
 10
1.999999999999858
 20
700.5
 30
81.00000000000006
 70
   192
  0
VERTEX
  5
2B71
  8
0
 10
1.999999999999858
 20
0.4999999999999449
 30
81.00000000000006
 70
   192
  0
VERTEX
  5
2B72
  8
0
 10
1.999999999999858
 20
0.5
 30
78.00000000000006
 70
   192
  0
VERTEX
  5
2B73
  8
0
 10
0.0
 20
0.0
 30
0.0
 70
   128
 71
     1
 72
     4
 73
    -3
  0
VERTEX
  5
2B74
  8
0
 10
0.0
 20
0.0
 30
0.0
 70
   128
 71
    -1
 72
     3
 73
     2
  0
SEQEND
  5
2FC4
  8
0
  0
POLYLINE
  5
2B75
  8
0
 66
     1
 10
0.0
 20
0.0
 30
0.0
 70
    64
 71
     4
 72
     2
  0
VERTEX
  5
2B76
  8
0
 10
1.999999999999858
 20
0.4999999999999449
 30
78.00000000000006
 70
   192
  0
VERTEX
  5
2B77
  8
0
 10
1.999999999999858
 20
0.4999999999999449
 30
81.00000000000006
 70
   192
  0
VERTEX
  5
2B78
  8
0
 10
401.9999999999999
 20
0.4999999999999449
 30
81.00000000000006
 70
   192
  0
VERTEX
  5
2B79
  8
0
 10
401.9999999999999
 20
0.4999999999999449
 30
78.00000000000006
 70
   192
  0
VERTEX
  5
2B7A
  8
0
 10
0.0
 20
0.0
 30
0.0
 70
   128
 71
     1
 72
     4
 73
    -3
  0
VERTEX
  5
2B7B
  8
0
 10
0.0
 20
0.0
 30
0.0
 70
   128
 71
    -1
 72
     3
 73
     2
  0
SEQEND
  5
2FC5
  8
0
  0
POLYLINE
  5
2B7C
  8
0
 66
     1
 10
0.0
 20
0.0
 30
0.0
 70
    64
 71
     4
 72
     2
  0
VERTEX
  5
2B7D
  8
0
 10
401.9999999999999
 20
0.4999999999999449
 30
78.00000000000006
 70
   192
  0
VERTEX
  5
2B7E
  8
0
 10
401.9999999999999
 20
0.4999999999999449
 30
81.00000000000006
 70
   192
  0
VERTEX
  5
2B7F
  8
0
 10
401.9999999999999
 20
700.5
 30
81.00000000000006
 70
   192
  0
VERTEX
  5
2B80
  8
0
 10
401.9999999999999
 20
700.5
 30
78.00000000000006
 70
   192
  0
VERTEX
  5
2B81
  8
0
 10
0.0
 20
0.0
 30
0.0
 70
   128
 71
     1
 72
     4
 73
    -3
  0
VERTEX
  5
2B82
  8
0
 10
0.0
 20
0.0
 30
0.0
 70
   128
 71
    -1
 72
     3
 73
     2
  0
SEQEND
  5
2FC6
  8
0
  0
POLYLINE
  5
2B83
  8
0
 66
     1
 10
0.0
 20
0.0
 30
0.0
 70
    64
 71
     4
 72
     2
  0
VERTEX
  5
2B84
  8
0
 10
401.9999999999999
 20
700.5
 30
78.00000000000006
 70
   192
  0
VERTEX
  5
2B85
  8
0
 10
401.9999999999999
 20
700.5
 30
81.00000000000006
 70
   192
  0
VERTEX
  5
2B86
  8
0
 10
1.999999999999858
 20
700.5
 30
81.00000000000006
 70
   192
  0
VERTEX
  5
2B87
  8
0
 10
1.999999999999886
 20
700.5
 30
78.00000000000006
 70
   192
  0
VERTEX
  5
2B88
  8
0
 10
0.0
 20
0.0
 30
0.0
 70
   128
 71
     1
 72
     4
 73
    -3
  0
VERTEX
  5
2B89
  8
0
 10
0.0
 20
0.0
 30
0.0
 70
   128
 71
    -1
 72
     3
 73
     2
  0
SEQEND
  5
2FC7
  8
0
  0
POLYLINE
  5
2B8A
  8
0
 66
     1
 10
0.0
 20
0.0
 30
0.0
 70
    64
 71
     4
 72
     2
  0
VERTEX
  5
2B8B
  8
0
 10
1.999999999999858
 20
700.5
 30
81.00000000000006
 70
   192
  0
VERTEX
  5
2B8C
  8
0
 10
1.999999999999858
 20
0.5
 30
81.00000000000006
 70
   192
  0
VERTEX
  5
2B8D
  8
0
 10
401.9999999999999
 20
0.4999999999999449
 30
81.00000000000006
 70
   192
  0
VERTEX
  5
2B8E
  8
0
 10
401.9999999999999
 20
700.5
 30
81.00000000000006
 70
   192
  0
VERTEX
  5
2B8F
  8
0
 10
0.0
 20
0.0
 30
0.0
 70
   128
 71
     3
 72
     4
 73
    -1
  0
VERTEX
  5
2B90
  8
0
 10
0.0
 20
0.0
 30
0.0
 70
   128
 71
     2
 72
    -3
 73
     1
  0
SEQEND
  5
2FC8
  8
0
  0
POLYLINE
  5
2B91
  8
0
 66
     1
 10
0.0
 20
0.0
 30
0.0
 70
    64
 71
     4
 72
     2
  0
VERTEX
  5
2B92
  8
0
 10
1.999999999999858
 20
0.4999999999999449
 30
78.00000000000006
 70
   192
  0
VERTEX
  5
2B93
  8
0
 10
401.9999999999999
 20
0.4999999999999449
 30
78.00000000000006
 70
   192
  0
VERTEX
  5
2B94
  8
0
 10
401.9999999999999
 20
700.5
 30
78.00000000000006
 70
   192
  0
VERTEX
  5
2B95
  8
0
 10
1.999999999999858
 20
700.5
 30
78.00000000000006
 70
   192
  0
VERTEX
  5
2B96
  8
0
 10
0.0
 20
0.0
 30
0.0
 70
   128
 71
     1
 72
     4
 73
    -3
  0
VERTEX
  5
2B97
  8
0
 10
0.0
 20
0.0
 30
0.0
 70
   128
 71
    -1
 72
     3
 73
     2
  0
SEQEND
  5
2FC9
  8
0
  0
ENDBLK
  5
2FC3
  8
0
  0
BLOCK
  8
0
  2
*X14
 70
     1
 10
0.0
 20
0.0
 30
0.0
  3
*X14
  1

  0
POLYLINE
  5
2B99
  8
0
 66
     1
 10
0.0
 20
0.0
 30
0.0
 70
    64
 71
     8
 72
     8
  0
VERTEX
  5
2B9A
  8
0
 10
1.999999999999886
 20
0.4999999999999449
 30
78.00000000000009
 70
   192
  0
VERTEX
  5
2B9B
  8
0
 10
401.9999999999999
 20
0.4999999999999449
 30
78.00000000000003
 70
   192
  0
VERTEX
  5
2B9C
  8
0
 10
401.9999999999999
 20
0.4999999999999449
 30
62.00000000000003
 70
   192
  0
VERTEX
  5
2B9D
  8
0
 10
1.999999999999858
 20
0.4999999999999449
 30
62.00000000000008
 70
   192
  0
VERTEX
  5
2B9E
  8
0
 10
6.999999999999858
 20
0.4999999999999449
 30
63.75000000000006
 70
   192
  0
VERTEX
  5
2B9F
  8
0
 10
56.99999999999983
 20
0.4999999999999449
 30
63.75000000000006
 70
   192
  0
VERTEX
  5
2BA0
  8
0
 10
56.99999999999983
 20
0.4999999999999449
 30
76.25000000000006
 70
   192
  0
VERTEX
  5
2BA1
  8
0
 10
6.999999999999858
 20
0.4999999999999449
 30
76.25000000000006
 70
   192
  0
VERTEX
  5
2BA2
  8
0
 10
0.0
 20
0.0
 30
0.0
 70
   128
 71
     6
 72
    -5
 73
    -4
  0
VERTEX
  5
2BA3
  8
0
 10
0.0
 20
0.0
 30
0.0
 70
   128
 71
    -6
 72
     4
 73
    -3
  0
VERTEX
  5
2BA4
  8
0
 10
0.0
 20
0.0
 30
0.0
 70
   128
 71
     3
 72
    -2
 73
    -7
  0
VERTEX
  5
2BA5
  8
0
 10
0.0
 20
0.0
 30
0.0
 70
   128
 71
    -3
 72
     7
 73
    -6
  0
VERTEX
  5
2BA6
  8
0
 10
0.0
 20
0.0
 30
0.0
 70
   128
 71
     2
 72
    -1
 73
    -7
  0
VERTEX
  5
2BA7
  8
0
 10
0.0
 20
0.0
 30
0.0
 70
   128
 71
    -1
 72
     8
 73
    -7
  0
VERTEX
  5
2BA8
  8
0
 10
0.0
 20
0.0
 30
0.0
 70
   128
 71
     1
 72
    -4
 73
    -5
  0
VERTEX
  5
2BA9
  8
0
 10
0.0
 20
0.0
 30
0.0
 70
   128
 71
    -1
 72
     5
 73
    -8
  0
SEQEND
  5
2FCC
  8
0
  0
POLYLINE
  5
2BAA
  8
0
 66
     1
 10
0.0
 20
0.0
 30
0.0
 70
    64
 71
     4
 72
     2
  0
VERTEX
  5
2BAB
  8
0
 10
1.999999999999858
 20
0.5
 30
62.00000000000008
 70
   192
  0
VERTEX
  5
2BAC
  8
0
 10
1.999999999999858
 20
700.5
 30
62.00000000000008
 70
   192
  0
VERTEX
  5
2BAD
  8
0
 10
1.999999999999858
 20
700.5
 30
78.00000000000009
 70
   192
  0
VERTEX
  5
2BAE
  8
0
 10
1.999999999999858
 20
0.4999999999999449
 30
78.00000000000009
 70
   192
  0
VERTEX
  5
2BAF
  8
0
 10
0.0
 20
0.0
 30
0.0
 70
   128
 71
     1
 72
     4
 73
    -3
  0
VERTEX
  5
2BB0
  8
0
 10
0.0
 20
0.0
 30
0.0
 70
   128
 71
    -1
 72
     3
 73
     2
  0
SEQEND
  5
2FCD
  8
0
  0
POLYLINE
  5
2BB1
  8
0
 66
     1
 10
0.0
 20
0.0
 30
0.0
 70
    64
 71
     4
 72
     2
  0
VERTEX
  5
2BB2
  8
0
 10
1.999999999999858
 20
0.5
 30
78.00000000000009
 70
   192
  0
VERTEX
  5
2BB3
  8
0
 10
1.999999999999886
 20
700.5
 30
78.00000000000009
 70
   192
  0
VERTEX
  5
2BB4
  8
0
 10
401.9999999999999
 20
700.5
 30
78.00000000000003
 70
   192
  0
VERTEX
  5
2BB5
  8
0
 10
401.9999999999999
 20
0.4999999999999449
 30
78.00000000000003
 70
   192
  0
VERTEX
  5
2BB6
  8
0
 10
0.0
 20
0.0
 30
0.0
 70
   128
 71
     1
 72
     4
 73
    -3
  0
VERTEX
  5
2BB7
  8
0
 10
0.0
 20
0.0
 30
0.0
 70
   128
 71
    -1
 72
     3
 73
     2
  0
SEQEND
  5
2FCE
  8
0
  0
POLYLINE
  5
2BB8
  8
0
 66
     1
 10
0.0
 20
0.0
 30
0.0
 70
    64
 71
     4
 72
     2
  0
VERTEX
  5
2BB9
  8
0
 10
401.9999999999999
 20
0.5
 30
78.00000000000003
 70
   192
  0
VERTEX
  5
2BBA
  8
0
 10
401.9999999999999
 20
700.5
 30
78.00000000000003
 70
   192
  0
VERTEX
  5
2BBB
  8
0
 10
401.9999999999999
 20
700.5
 30
62.00000000000003
 70
   192
  0
VERTEX
  5
2BBC
  8
0
 10
401.9999999999999
 20
0.4999999999999449
 30
62.00000000000003
 70
   192
  0
VERTEX
  5
2BBD
  8
0
 10
0.0
 20
0.0
 30
0.0
 70
   128
 71
     1
 72
     4
 73
    -3
  0
VERTEX
  5
2BBE
  8
0
 10
0.0
 20
0.0
 30
0.0
 70
   128
 71
    -1
 72
     3
 73
     2
  0
SEQEND
  5
2FCF
  8
0
  0
POLYLINE
  5
2BBF
  8
0
 66
     1
 10
0.0
 20
0.0
 30
0.0
 70
    64
 71
     4
 72
     2
  0
VERTEX
  5
2BC0
  8
0
 10
401.9999999999999
 20
0.5
 30
62.00000000000003
 70
   192
  0
VERTEX
  5
2BC1
  8
0
 10
401.9999999999999
 20
700.5
 30
62.00000000000003
 70
   192
  0
VERTEX
  5
2BC2
  8
0
 10
1.999999999999858
 20
700.5
 30
62.00000000000008
 70
   192
  0
VERTEX
  5
2BC3
  8
0
 10
1.999999999999886
 20
0.4999999999999449
 30
62.00000000000008
 70
   192
  0
VERTEX
  5
2BC4
  8
0
 10
0.0
 20
0.0
 30
0.0
 70
   128
 71
     1
 72
     4
 73
    -3
  0
VERTEX
  5
2BC5
  8
0
 10
0.0
 20
0.0
 30
0.0
 70
   128
 71
    -1
 72
     3
 73
     2
  0
SEQEND
  5
2FD0
  8
0
  0
POLYLINE
  5
2BC6
  8
0
 66
     1
 10
0.0
 20
0.0
 30
0.0
 70
    64
 71
     4
 72
     2
  0
VERTEX
  5
2BC7
  8
0
 10
1.999999999999858
 20
700.5
 30
62.00000000000008
 70
   192
  0
VERTEX
  5
2BC8
  8
0
 10
1.999999999999858
 20
700.5
 30
78.00000000000009
 70
   192
  0
VERTEX
  5
2BC9
  8
0
 10
401.9999999999999
 20
700.5
 30
78.00000000000003
 70
   192
  0
VERTEX
  5
2BCA
  8
0
 10
401.9999999999999
 20
700.5
 30
62.00000000000003
 70
   192
  0
VERTEX
  5
2BCB
  8
0
 10
0.0
 20
0.0
 30
0.0
 70
   128
 71
     3
 72
     4
 73
    -1
  0
VERTEX
  5
2BCC
  8
0
 10
0.0
 20
0.0
 30
0.0
 70
   128
 71
     2
 72
    -3
 73
     1
  0
SEQEND
  5
2FD1
  8
0
  0
POLYLINE
  5
2BCD
  8
0
 66
     1
 10
0.0
 20
0.0
 30
0.0
 70
    64
 71
     4
 72
     2
  0
VERTEX
  5
2BCE
  8
0
 10
6.999999999999858
 20
0.4999999999999449
 30
76.25000000000006
 70
   192
  0
VERTEX
  5
2BCF
  8
0
 10
6.999999999999858
 20
0.4999999999999449
 30
63.75000000000006
 70
   192
  0
VERTEX
  5
2BD0
  8
0
 10
8.31652497587382
 20
-9.500000000000055
 30
65.06652497587402
 70
   192
  0
VERTEX
  5
2BD1
  8
0
 10
8.316524975873818
 20
-9.500000000000055
 30
74.9334750241261
 70
   192
  0
VERTEX
  5
2BD2
  8
0
 10
0.0
 20
0.0
 30
0.0
 70
   128
 71
     3
 72
     4
 73
    -1
  0
VERTEX
  5
2BD3
  8
0
 10
0.0
 20
0.0
 30
0.0
 70
   128
 71
     2
 72
    -3
 73
     1
  0
SEQEND
  5
2FD2
  8
0
  0
POLYLINE
  5
2BD4
  8
0
 66
     1
 10
0.0
 20
0.0
 30
0.0
 70
    64
 71
     4
 72
     2
  0
VERTEX
  5
2BD5
  8
0
 10
6.999999999999858
 20
0.4999999999999449
 30
63.75000000000006
 70
   192
  0
VERTEX
  5
2BD6
  8
0
 10
56.99999999999983
 20
0.4999999999999449
 30
63.75000000000006
 70
   192
  0
VERTEX
  5
2BD7
  8
0
 10
55.68347502412589
 20
-9.500000000000055
 30
65.06652497587402
 70
   192
  0
VERTEX
  5
2BD8
  8
0
 10
8.316524975873818
 20
-9.500000000000055
 30
65.06652497587402
 70
   192
  0
VERTEX
  5
2BD9
  8
0
 10
0.0
 20
0.0
 30
0.0
 70
   128
 71
     3
 72
     4
 73
    -1
  0
VERTEX
  5
2BDA
  8
0
 10
0.0
 20
0.0
 30
0.0
 70
   128
 71
     2
 72
    -3
 73
     1
  0
SEQEND
  5
2FD3
  8
0
  0
POLYLINE
  5
2BDB
  8
0
 66
     1
 10
0.0
 20
0.0
 30
0.0
 70
    64
 71
     4
 72
     2
  0
VERTEX
  5
2BDC
  8
0
 10
56.99999999999983
 20
0.4999999999999449
 30
63.75000000000006
 70
   192
  0
VERTEX
  5
2BDD
  8
0
 10
56.99999999999983
 20
0.4999999999999449
 30
76.25000000000006
 70
   192
  0
VERTEX
  5
2BDE
  8
0
 10
55.68347502412589
 20
-9.500000000000053
 30
74.9334750241261
 70
   192
  0
VERTEX
  5
2BDF
  8
0
 10
55.6834750241259
 20
-9.500000000000055
 30
65.06652497587402
 70
   192
  0
VERTEX
  5
2BE0
  8
0
 10
0.0
 20
0.0
 30
0.0
 70
   128
 71
     3
 72
     4
 73
    -1
  0
VERTEX
  5
2BE1
  8
0
 10
0.0
 20
0.0
 30
0.0
 70
   128
 71
     2
 72
    -3
 73
     1
  0
SEQEND
  5
2FD4
  8
0
  0
POLYLINE
  5
2BE2
  8
0
 66
     1
 10
0.0
 20
0.0
 30
0.0
 70
    64
 71
     4
 72
     2
  0
VERTEX
  5
2BE3
  8
0
 10
56.99999999999983
 20
0.4999999999999449
 30
76.25000000000006
 70
   192
  0
VERTEX
  5
2BE4
  8
0
 10
6.999999999999858
 20
0.4999999999999449
 30
76.25000000000006
 70
   192
  0
VERTEX
  5
2BE5
  8
0
 10
8.31652497587382
 20
-9.500000000000055
 30
74.9334750241261
 70
   192
  0
VERTEX
  5
2BE6
  8
0
 10
55.6834750241259
 20
-9.500000000000055
 30
74.9334750241261
 70
   192
  0
VERTEX
  5
2BE7
  8
0
 10
0.0
 20
0.0
 30
0.0
 70
   128
 71
     3
 72
     4
 73
    -1
  0
VERTEX
  5
2BE8
  8
0
 10
0.0
 20
0.0
 30
0.0
 70
   128
 71
     2
 72
    -3
 73
     1
  0
SEQEND
  5
2FD5
  8
0
  0
POLYLINE
  5
2BE9
  8
0
 66
     1
 10
0.0
 20
0.0
 30
0.0
 70
    64
 71
     4
 72
     2
  0
VERTEX
  5
2BEA
  8
0
 10
8.316524975873818
 20
-9.500000000000055
 30
74.9334750241261
 70
   192
  0
VERTEX
  5
2BEB
  8
0
 10
8.316524975873818
 20
-9.500000000000055
 30
65.06652497587402
 70
   192
  0
VERTEX
  5
2BEC
  8
0
 10
55.6834750241259
 20
-9.500000000000055
 30
65.06652497587402
 70
   192
  0
VERTEX
  5
2BED
  8
0
 10
55.6834750241259
 20
-9.500000000000055
 30
74.9334750241261
 70
   192
  0
VERTEX
  5
2BEE
  8
0
 10
0.0
 20
0.0
 30
0.0
 70
   128
 71
     3
 72
     4
 73
    -1
  0
VERTEX
  5
2BEF
  8
0
 10
0.0
 20
0.0
 30
0.0
 70
   128
 71
     2
 72
    -3
 73
     1
  0
SEQEND
  5
2FD6
  8
0
  0
ENDBLK
  5
2FCB
  8
0
  0
BLOCK
  8
0
  2
*X15
 70
     1
 10
0.0
 20
0.0
 30
0.0
  3
*X15
  1

  0
POLYLINE
  5
2BF1
  8
0
 66
     1
 10
0.0
 20
0.0
 30
0.0
 70
    64
 71
     4
 72
     2
  0
VERTEX
  5
2BF2
  8
0
 10
-2.000000000000142
 20
0.4999999999999449
 30
78.00000000000006
 70
   192
  0
VERTEX
  5
2BF3
  8
0
 10
-2.000000000000142
 20
0.5
 30
81.00000000000006
 70
   192
  0
VERTEX
  5
2BF4
  8
0
 10
-2.000000000000142
 20
700.5
 30
81.00000000000006
 70
   192
  0
VERTEX
  5
2BF5
  8
0
 10
-2.000000000000142
 20
700.5
 30
78.00000000000006
 70
   192
  0
VERTEX
  5
2BF6
  8
0
 10
0.0
 20
0.0
 30
0.0
 70
   128
 71
     1
 72
     4
 73
    -3
  0
VERTEX
  5
2BF7
  8
0
 10
0.0
 20
0.0
 30
0.0
 70
   128
 71
    -1
 72
     3
 73
     2
  0
SEQEND
  5
2FD9
  8
0
  0
POLYLINE
  5
2BF8
  8
0
 66
     1
 10
0.0
 20
0.0
 30
0.0
 70
    64
 71
     4
 72
     2
  0
VERTEX
  5
2BF9
  8
0
 10
-402.0000000000001
 20
0.4999999999999449
 30
78.00000000000006
 70
   192
  0
VERTEX
  5
2BFA
  8
0
 10
-402.0000000000001
 20
0.4999999999999449
 30
81.00000000000006
 70
   192
  0
VERTEX
  5
2BFB
  8
0
 10
-2.000000000000142
 20
0.4999999999999449
 30
81.00000000000006
 70
   192
  0
VERTEX
  5
2BFC
  8
0
 10
-2.000000000000142
 20
0.4999999999999449
 30
78.00000000000006
 70
   192
  0
VERTEX
  5
2BFD
  8
0
 10
0.0
 20
0.0
 30
0.0
 70
   128
 71
     1
 72
     4
 73
    -3
  0
VERTEX
  5
2BFE
  8
0
 10
0.0
 20
0.0
 30
0.0
 70
   128
 71
    -1
 72
     3
 73
     2
  0
SEQEND
  5
2FDA
  8
0
  0
POLYLINE
  5
2BFF
  8
0
 66
     1
 10
0.0
 20
0.0
 30
0.0
 70
    64
 71
     4
 72
     2
  0
VERTEX
  5
2C00
  8
0
 10
-402.0000000000001
 20
700.5
 30
78.00000000000006
 70
   192
  0
VERTEX
  5
2C01
  8
0
 10
-402.0000000000001
 20
700.5
 30
81.00000000000006
 70
   192
  0
VERTEX
  5
2C02
  8
0
 10
-402.0000000000001
 20
0.4999999999999449
 30
81.00000000000006
 70
   192
  0
VERTEX
  5
2C03
  8
0
 10
-402.0000000000001
 20
0.4999999999999449
 30
78.00000000000006
 70
   192
  0
VERTEX
  5
2C04
  8
0
 10
0.0
 20
0.0
 30
0.0
 70
   128
 71
     1
 72
     4
 73
    -3
  0
VERTEX
  5
2C05
  8
0
 10
0.0
 20
0.0
 30
0.0
 70
   128
 71
    -1
 72
     3
 73
     2
  0
SEQEND
  5
2FDB
  8
0
  0
POLYLINE
  5
2C06
  8
0
 66
     1
 10
0.0
 20
0.0
 30
0.0
 70
    64
 71
     4
 72
     2
  0
VERTEX
  5
2C07
  8
0
 10
-2.000000000000142
 20
700.5
 30
78.00000000000006
 70
   192
  0
VERTEX
  5
2C08
  8
0
 10
-2.000000000000114
 20
700.5
 30
81.00000000000006
 70
   192
  0
VERTEX
  5
2C09
  8
0
 10
-402.0000000000001
 20
700.5
 30
81.00000000000006
 70
   192
  0
VERTEX
  5
2C0A
  8
0
 10
-402.0000000000001
 20
700.5
 30
78.00000000000006
 70
   192
  0
VERTEX
  5
2C0B
  8
0
 10
0.0
 20
0.0
 30
0.0
 70
   128
 71
     1
 72
     4
 73
    -3
  0
VERTEX
  5
2C0C
  8
0
 10
0.0
 20
0.0
 30
0.0
 70
   128
 71
    -1
 72
     3
 73
     2
  0
SEQEND
  5
2FDC
  8
0
  0
POLYLINE
  5
2C0D
  8
0
 66
     1
 10
0.0
 20
0.0
 30
0.0
 70
    64
 71
     4
 72
     2
  0
VERTEX
  5
2C0E
  8
0
 10
-2.000000000000142
 20
0.5
 30
81.00000000000006
 70
   192
  0
VERTEX
  5
2C0F
  8
0
 10
-2.000000000000142
 20
700.5
 30
81.00000000000006
 70
   192
  0
VERTEX
  5
2C10
  8
0
 10
-402.0000000000001
 20
700.5
 30
81.00000000000006
 70
   192
  0
VERTEX
  5
2C11
  8
0
 10
-402.0000000000001
 20
0.4999999999999449
 30
81.00000000000006
 70
   192
  0
VERTEX
  5
2C12
  8
0
 10
0.0
 20
0.0
 30
0.0
 70
   128
 71
     3
 72
     4
 73
    -1
  0
VERTEX
  5
2C13
  8
0
 10
0.0
 20
0.0
 30
0.0
 70
   128
 71
     2
 72
    -3
 73
     1
  0
SEQEND
  5
2FDD
  8
0
  0
POLYLINE
  5
2C14
  8
0
 66
     1
 10
0.0
 20
0.0
 30
0.0
 70
    64
 71
     4
 72
     2
  0
VERTEX
  5
2C15
  8
0
 10
-2.000000000000114
 20
700.5
 30
78.00000000000006
 70
   192
  0
VERTEX
  5
2C16
  8
0
 10
-402.0000000000001
 20
700.5
 30
78.00000000000006
 70
   192
  0
VERTEX
  5
2C17
  8
0
 10
-402.0000000000001
 20
0.4999999999999449
 30
78.00000000000006
 70
   192
  0
VERTEX
  5
2C18
  8
0
 10
-2.000000000000142
 20
0.5
 30
78.00000000000006
 70
   192
  0
VERTEX
  5
2C19
  8
0
 10
0.0
 20
0.0
 30
0.0
 70
   128
 71
     1
 72
     4
 73
    -3
  0
VERTEX
  5
2C1A
  8
0
 10
0.0
 20
0.0
 30
0.0
 70
   128
 71
    -1
 72
     3
 73
     2
  0
SEQEND
  5
2FDE
  8
0
  0
ENDBLK
  5
2FD8
  8
0
  0
BLOCK
  8
0
  2
*X16
 70
     1
 10
0.0
 20
0.0
 30
0.0
  3
*X16
  1

  0
POLYLINE
  5
2C1C
  8
0
 66
     1
 10
0.0
 20
0.0
 30
0.0
 70
    64
 71
     8
 72
     8
  0
VERTEX
  5
2C1D
  8
0
 10
-2.000000000000114
 20
0.4999999999999449
 30
62.00000000000008
 70
   192
  0
VERTEX
  5
2C1E
  8
0
 10
-402.0000000000001
 20
0.4999999999999449
 30
62.00000000000003
 70
   192
  0
VERTEX
  5
2C1F
  8
0
 10
-402.0000000000001
 20
0.4999999999999449
 30
78.00000000000003
 70
   192
  0
VERTEX
  5
2C20
  8
0
 10
-2.000000000000142
 20
0.4999999999999449
 30
78.00000000000009
 70
   192
  0
VERTEX
  5
2C21
  8
0
 10
-7.000000000000171
 20
0.4999999999999449
 30
76.25000000000006
 70
   192
  0
VERTEX
  5
2C22
  8
0
 10
-57.00000000000014
 20
0.4999999999999449
 30
76.25000000000006
 70
   192
  0
VERTEX
  5
2C23
  8
0
 10
-57.00000000000014
 20
0.4999999999999449
 30
63.75000000000006
 70
   192
  0
VERTEX
  5
2C24
  8
0
 10
-7.000000000000171
 20
0.4999999999999449
 30
63.75000000000006
 70
   192
  0
VERTEX
  5
2C25
  8
0
 10
0.0
 20
0.0
 30
0.0
 70
   128
 71
     6
 72
    -5
 73
    -4
  0
VERTEX
  5
2C26
  8
0
 10
0.0
 20
0.0
 30
0.0
 70
   128
 71
    -6
 72
     4
 73
    -3
  0
VERTEX
  5
2C27
  8
0
 10
0.0
 20
0.0
 30
0.0
 70
   128
 71
     3
 72
    -2
 73
    -7
  0
VERTEX
  5
2C28
  8
0
 10
0.0
 20
0.0
 30
0.0
 70
   128
 71
    -3
 72
     7
 73
    -6
  0
VERTEX
  5
2C29
  8
0
 10
0.0
 20
0.0
 30
0.0
 70
   128
 71
     2
 72
    -1
 73
    -7
  0
VERTEX
  5
2C2A
  8
0
 10
0.0
 20
0.0
 30
0.0
 70
   128
 71
    -1
 72
     8
 73
    -7
  0
VERTEX
  5
2C2B
  8
0
 10
0.0
 20
0.0
 30
0.0
 70
   128
 71
     1
 72
    -4
 73
    -5
  0
VERTEX
  5
2C2C
  8
0
 10
0.0
 20
0.0
 30
0.0
 70
   128
 71
    -1
 72
     5
 73
    -8
  0
SEQEND
  5
2FE1
  8
0
  0
POLYLINE
  5
2C2D
  8
0
 66
     1
 10
0.0
 20
0.0
 30
0.0
 70
    64
 71
     4
 72
     2
  0
VERTEX
  5
2C2E
  8
0
 10
-2.000000000000142
 20
0.5
 30
78.00000000000009
 70
   192
  0
VERTEX
  5
2C2F
  8
0
 10
-2.000000000000142
 20
700.5
 30
78.00000000000009
 70
   192
  0
VERTEX
  5
2C30
  8
0
 10
-2.000000000000142
 20
700.5
 30
62.00000000000008
 70
   192
  0
VERTEX
  5
2C31
  8
0
 10
-2.000000000000142
 20
0.4999999999999449
 30
62.00000000000008
 70
   192
  0
VERTEX
  5
2C32
  8
0
 10
0.0
 20
0.0
 30
0.0
 70
   128
 71
     1
 72
     4
 73
    -3
  0
VERTEX
  5
2C33
  8
0
 10
0.0
 20
0.0
 30
0.0
 70
   128
 71
    -1
 72
     3
 73
     2
  0
SEQEND
  5
2FE2
  8
0
  0
POLYLINE
  5
2C34
  8
0
 66
     1
 10
0.0
 20
0.0
 30
0.0
 70
    64
 71
     4
 72
     2
  0
VERTEX
  5
2C35
  8
0
 10
-402.0000000000001
 20
0.5
 30
78.00000000000003
 70
   192
  0
VERTEX
  5
2C36
  8
0
 10
-402.0000000000001
 20
700.5
 30
78.00000000000003
 70
   192
  0
VERTEX
  5
2C37
  8
0
 10
-2.000000000000142
 20
700.5
 30
78.00000000000009
 70
   192
  0
VERTEX
  5
2C38
  8
0
 10
-2.000000000000114
 20
0.4999999999999449
 30
78.00000000000009
 70
   192
  0
VERTEX
  5
2C39
  8
0
 10
0.0
 20
0.0
 30
0.0
 70
   128
 71
     1
 72
     4
 73
    -3
  0
VERTEX
  5
2C3A
  8
0
 10
0.0
 20
0.0
 30
0.0
 70
   128
 71
    -1
 72
     3
 73
     2
  0
SEQEND
  5
2FE3
  8
0
  0
POLYLINE
  5
2C3B
  8
0
 66
     1
 10
0.0
 20
0.0
 30
0.0
 70
    64
 71
     4
 72
     2
  0
VERTEX
  5
2C3C
  8
0
 10
-402.0000000000001
 20
0.5
 30
62.00000000000003
 70
   192
  0
VERTEX
  5
2C3D
  8
0
 10
-402.0000000000001
 20
700.5
 30
62.00000000000003
 70
   192
  0
VERTEX
  5
2C3E
  8
0
 10
-402.0000000000001
 20
700.5
 30
78.00000000000003
 70
   192
  0
VERTEX
  5
2C3F
  8
0
 10
-402.0000000000001
 20
0.4999999999999449
 30
78.00000000000003
 70
   192
  0
VERTEX
  5
2C40
  8
0
 10
0.0
 20
0.0
 30
0.0
 70
   128
 71
     1
 72
     4
 73
    -3
  0
VERTEX
  5
2C41
  8
0
 10
0.0
 20
0.0
 30
0.0
 70
   128
 71
    -1
 72
     3
 73
     2
  0
SEQEND
  5
2FE4
  8
0
  0
POLYLINE
  5
2C42
  8
0
 66
     1
 10
0.0
 20
0.0
 30
0.0
 70
    64
 71
     4
 72
     2
  0
VERTEX
  5
2C43
  8
0
 10
-2.000000000000142
 20
0.5
 30
62.00000000000008
 70
   192
  0
VERTEX
  5
2C44
  8
0
 10
-2.000000000000114
 20
700.5
 30
62.00000000000008
 70
   192
  0
VERTEX
  5
2C45
  8
0
 10
-402.0000000000001
 20
700.5
 30
62.00000000000003
 70
   192
  0
VERTEX
  5
2C46
  8
0
 10
-402.0000000000001
 20
0.4999999999999449
 30
62.00000000000003
 70
   192
  0
VERTEX
  5
2C47
  8
0
 10
0.0
 20
0.0
 30
0.0
 70
   128
 71
     1
 72
     4
 73
    -3
  0
VERTEX
  5
2C48
  8
0
 10
0.0
 20
0.0
 30
0.0
 70
   128
 71
    -1
 72
     3
 73
     2
  0
SEQEND
  5
2FE5
  8
0
  0
POLYLINE
  5
2C49
  8
0
 66
     1
 10
0.0
 20
0.0
 30
0.0
 70
    64
 71
     4
 72
     2
  0
VERTEX
  5
2C4A
  8
0
 10
-2.000000000000142
 20
700.5
 30
78.00000000000009
 70
   192
  0
VERTEX
  5
2C4B
  8
0
 10
-2.000000000000142
 20
700.5
 30
62.00000000000008
 70
   192
  0
VERTEX
  5
2C4C
  8
0
 10
-402.0000000000001
 20
700.5
 30
62.00000000000003
 70
   192
  0
VERTEX
  5
2C4D
  8
0
 10
-402.0000000000001
 20
700.5
 30
78.00000000000003
 70
   192
  0
VERTEX
  5
2C4E
  8
0
 10
0.0
 20
0.0
 30
0.0
 70
   128
 71
     3
 72
     4
 73
    -1
  0
VERTEX
  5
2C4F
  8
0
 10
0.0
 20
0.0
 30
0.0
 70
   128
 71
     2
 72
    -3
 73
     1
  0
SEQEND
  5
2FE6
  8
0
  0
POLYLINE
  5
2C50
  8
0
 66
     1
 10
0.0
 20
0.0
 30
0.0
 70
    64
 71
     4
 72
     2
  0
VERTEX
  5
2C51
  8
0
 10
-7.000000000000171
 20
0.4999999999999449
 30
63.75000000000006
 70
   192
  0
VERTEX
  5
2C52
  8
0
 10
-7.000000000000171
 20
0.4999999999999449
 30
76.25000000000006
 70
   192
  0
VERTEX
  5
2C53
  8
0
 10
-8.316524975874131
 20
-9.50000000000005
 30
74.9334750241261
 70
   192
  0
VERTEX
  5
2C54
  8
0
 10
-8.316524975874103
 20
-9.500000000000055
 30
65.06652497587402
 70
   192
  0
VERTEX
  5
2C55
  8
0
 10
0.0
 20
0.0
 30
0.0
 70
   128
 71
     3
 72
     4
 73
    -1
  0
VERTEX
  5
2C56
  8
0
 10
0.0
 20
0.0
 30
0.0
 70
   128
 71
     2
 72
    -3
 73
     1
  0
SEQEND
  5
2FE7
  8
0
  0
POLYLINE
  5
2C57
  8
0
 66
     1
 10
0.0
 20
0.0
 30
0.0
 70
    64
 71
     4
 72
     2
  0
VERTEX
  5
2C58
  8
0
 10
-57.00000000000014
 20
0.4999999999999449
 30
63.75000000000006
 70
   192
  0
VERTEX
  5
2C59
  8
0
 10
-7.000000000000171
 20
0.4999999999999449
 30
63.75000000000006
 70
   192
  0
VERTEX
  5
2C5A
  8
0
 10
-8.316524975874131
 20
-9.50000000000005
 30
65.06652497587402
 70
   192
  0
VERTEX
  5
2C5B
  8
0
 10
-55.68347502412618
 20
-9.500000000000055
 30
65.06652497587402
 70
   192
  0
VERTEX
  5
2C5C
  8
0
 10
0.0
 20
0.0
 30
0.0
 70
   128
 71
     3
 72
     4
 73
    -1
  0
VERTEX
  5
2C5D
  8
0
 10
0.0
 20
0.0
 30
0.0
 70
   128
 71
     2
 72
    -3
 73
     1
  0
SEQEND
  5
2FE8
  8
0
  0
POLYLINE
  5
2C5E
  8
0
 66
     1
 10
0.0
 20
0.0
 30
0.0
 70
    64
 71
     4
 72
     2
  0
VERTEX
  5
2C5F
  8
0
 10
-57.00000000000014
 20
0.4999999999999449
 30
76.25000000000006
 70
   192
  0
VERTEX
  5
2C60
  8
0
 10
-57.00000000000014
 20
0.4999999999999449
 30
63.75000000000006
 70
   192
  0
VERTEX
  5
2C61
  8
0
 10
-55.6834750241262
 20
-9.500000000000059
 30
65.06652497587402
 70
   192
  0
VERTEX
  5
2C62
  8
0
 10
-55.68347502412618
 20
-9.500000000000055
 30
74.9334750241261
 70
   192
  0
VERTEX
  5
2C63
  8
0
 10
0.0
 20
0.0
 30
0.0
 70
   128
 71
     3
 72
     4
 73
    -1
  0
VERTEX
  5
2C64
  8
0
 10
0.0
 20
0.0
 30
0.0
 70
   128
 71
     2
 72
    -3
 73
     1
  0
SEQEND
  5
2FE9
  8
0
  0
POLYLINE
  5
2C65
  8
0
 66
     1
 10
0.0
 20
0.0
 30
0.0
 70
    64
 71
     4
 72
     2
  0
VERTEX
  5
2C66
  8
0
 10
-7.000000000000171
 20
0.4999999999999449
 30
76.25000000000006
 70
   192
  0
VERTEX
  5
2C67
  8
0
 10
-57.00000000000014
 20
0.4999999999999449
 30
76.25000000000006
 70
   192
  0
VERTEX
  5
2C68
  8
0
 10
-55.6834750241262
 20
-9.500000000000057
 30
74.93347502412608
 70
   192
  0
VERTEX
  5
2C69
  8
0
 10
-8.316524975874103
 20
-9.500000000000055
 30
74.9334750241261
 70
   192
  0
VERTEX
  5
2C6A
  8
0
 10
0.0
 20
0.0
 30
0.0
 70
   128
 71
     3
 72
     4
 73
    -1
  0
VERTEX
  5
2C6B
  8
0
 10
0.0
 20
0.0
 30
0.0
 70
   128
 71
     2
 72
    -3
 73
     1
  0
SEQEND
  5
2FEA
  8
0
  0
POLYLINE
  5
2C6C
  8
0
 66
     1
 10
0.0
 20
0.0
 30
0.0
 70
    64
 71
     4
 72
     2
  0
VERTEX
  5
2C6D
  8
0
 10
-8.316524975874103
 20
-9.500000000000055
 30
65.06652497587402
 70
   192
  0
VERTEX
  5
2C6E
  8
0
 10
-8.316524975874103
 20
-9.500000000000055
 30
74.9334750241261
 70
   192
  0
VERTEX
  5
2C6F
  8
0
 10
-55.68347502412618
 20
-9.500000000000055
 30
74.9334750241261
 70
   192
  0
VERTEX
  5
2C70
  8
0
 10
-55.68347502412618
 20
-9.500000000000055
 30
65.06652497587402
 70
   192
  0
VERTEX
  5
2C71
  8
0
 10
0.0
 20
0.0
 30
0.0
 70
   128
 71
     3
 72
     4
 73
    -1
  0
VERTEX
  5
2C72
  8
0
 10
0.0
 20
0.0
 30
0.0
 70
   128
 71
     2
 72
    -3
 73
     1
  0
SEQEND
  5
2FEB
  8
0
  0
ENDBLK
  5
2FE0
  8
0
  0
BLOCK
  8
0
  2
*X17
 70
     1
 10
0.0
 20
0.0
 30
0.0
  3
*X17
  1

  0
POLYLINE
  5
2C74
  8
0
 66
     1
 10
0.0
 20
0.0
 30
0.0
 70
    64
 71
     4
 72
     2
  0
VERTEX
  5
2C75
  8
0
 10
9.999999999999943
 20
527.9999999999999
 30
-62.00000000000002
 70
   192
  0
VERTEX
  5
2C76
  8
0
 10
9.999999999999943
 20
532.9999999999999
 30
-62.00000000000002
 70
   192
  0
VERTEX
  5
2C77
  8
0
 10
9.999999999999943
 20
532.9999999999999
 30
57.99999999999998
 70
   192
  0
VERTEX
  5
2C78
  8
0
 10
9.999999999999943
 20
527.9999999999999
 30
57.99999999999998
 70
   192
  0
VERTEX
  5
2C79
  8
0
 10
0.0
 20
0.0
 30
0.0
 70
   128
 71
     1
 72
     4
 73
    -3
  0
VERTEX
  5
2C7A
  8
0
 10
0.0
 20
0.0
 30
0.0
 70
   128
 71
    -1
 72
     3
 73
     2
  0
SEQEND
  5
2FEE
  8
0
  0
POLYLINE
  5
2C7B
  8
0
 66
     1
 10
0.0
 20
0.0
 30
0.0
 70
    64
 71
     4
 72
     2
  0
VERTEX
  5
2C7C
  8
0
 10
9.999999999999943
 20
527.9999999999999
 30
57.99999999999998
 70
   192
  0
VERTEX
  5
2C7D
  8
0
 10
9.999999999999943
 20
532.9999999999999
 30
57.99999999999998
 70
   192
  0
VERTEX
  5
2C7E
  8
0
 10
383.9999999999999
 20
532.9999999999999
 30
57.99999999999994
 70
   192
  0
VERTEX
  5
2C7F
  8
0
 10
383.9999999999999
 20
527.9999999999999
 30
57.99999999999994
 70
   192
  0
VERTEX
  5
2C80
  8
0
 10
0.0
 20
0.0
 30
0.0
 70
   128
 71
     1
 72
     4
 73
    -3
  0
VERTEX
  5
2C81
  8
0
 10
0.0
 20
0.0
 30
0.0
 70
   128
 71
    -1
 72
     3
 73
     2
  0
SEQEND
  5
2FEF
  8
0
  0
POLYLINE
  5
2C82
  8
0
 66
     1
 10
0.0
 20
0.0
 30
0.0
 70
    64
 71
     4
 72
     2
  0
VERTEX
  5
2C83
  8
0
 10
383.9999999999999
 20
527.9999999999999
 30
57.99999999999994
 70
   192
  0
VERTEX
  5
2C84
  8
0
 10
383.9999999999999
 20
532.9999999999999
 30
57.99999999999994
 70
   192
  0
VERTEX
  5
2C85
  8
0
 10
383.9999999999999
 20
532.9999999999999
 30
-62.00000000000007
 70
   192
  0
VERTEX
  5
2C86
  8
0
 10
383.9999999999999
 20
527.9999999999999
 30
-62.00000000000006
 70
   192
  0
VERTEX
  5
2C87
  8
0
 10
0.0
 20
0.0
 30
0.0
 70
   128
 71
     1
 72
     4
 73
    -3
  0
VERTEX
  5
2C88
  8
0
 10
0.0
 20
0.0
 30
0.0
 70
   128
 71
    -1
 72
     3
 73
     2
  0
SEQEND
  5
2FF0
  8
0
  0
POLYLINE
  5
2C89
  8
0
 66
     1
 10
0.0
 20
0.0
 30
0.0
 70
    64
 71
     4
 72
     2
  0
VERTEX
  5
2C8A
  8
0
 10
383.9999999999999
 20
527.9999999999999
 30
-62.00000000000007
 70
   192
  0
VERTEX
  5
2C8B
  8
0
 10
383.9999999999999
 20
532.9999999999999
 30
-62.00000000000007
 70
   192
  0
VERTEX
  5
2C8C
  8
0
 10
9.999999999999943
 20
532.9999999999999
 30
-62.00000000000002
 70
   192
  0
VERTEX
  5
2C8D
  8
0
 10
9.999999999999943
 20
527.9999999999999
 30
-62.00000000000002
 70
   192
  0
VERTEX
  5
2C8E
  8
0
 10
0.0
 20
0.0
 30
0.0
 70
   128
 71
     1
 72
     4
 73
    -3
  0
VERTEX
  5
2C8F
  8
0
 10
0.0
 20
0.0
 30
0.0
 70
   128
 71
    -1
 72
     3
 73
     2
  0
SEQEND
  5
2FF1
  8
0
  0
POLYLINE
  5
2C90
  8
0
 66
     1
 10
0.0
 20
0.0
 30
0.0
 70
    64
 71
     4
 72
     2
  0
VERTEX
  5
2C91
  8
0
 10
9.999999999999943
 20
532.9999999999999
 30
-62.00000000000002
 70
   192
  0
VERTEX
  5
2C92
  8
0
 10
9.999999999999943
 20
532.9999999999999
 30
57.99999999999998
 70
   192
  0
VERTEX
  5
2C93
  8
0
 10
383.9999999999999
 20
532.9999999999999
 30
57.99999999999994
 70
   192
  0
VERTEX
  5
2C94
  8
0
 10
383.9999999999999
 20
532.9999999999999
 30
-62.00000000000006
 70
   192
  0
VERTEX
  5
2C95
  8
0
 10
0.0
 20
0.0
 30
0.0
 70
   128
 71
     3
 72
     4
 73
    -1
  0
VERTEX
  5
2C96
  8
0
 10
0.0
 20
0.0
 30
0.0
 70
   128
 71
     2
 72
    -3
 73
     1
  0
SEQEND
  5
2FF2
  8
0
  0
POLYLINE
  5
2C97
  8
0
 66
     1
 10
0.0
 20
0.0
 30
0.0
 70
    64
 71
     4
 72
     2
  0
VERTEX
  5
2C98
  8
0
 10
9.999999999999943
 20
527.9999999999999
 30
57.99999999999998
 70
   192
  0
VERTEX
  5
2C99
  8
0
 10
383.9999999999999
 20
527.9999999999999
 30
57.99999999999994
 70
   192
  0
VERTEX
  5
2C9A
  8
0
 10
383.9999999999999
 20
527.9999999999999
 30
-62.00000000000007
 70
   192
  0
VERTEX
  5
2C9B
  8
0
 10
9.999999999999943
 20
527.9999999999999
 30
-62.00000000000002
 70
   192
  0
VERTEX
  5
2C9C
  8
0
 10
0.0
 20
0.0
 30
0.0
 70
   128
 71
     1
 72
     4
 73
    -3
  0
VERTEX
  5
2C9D
  8
0
 10
0.0
 20
0.0
 30
0.0
 70
   128
 71
    -1
 72
     3
 73
     2
  0
SEQEND
  5
2FF3
  8
0
  0
ENDBLK
  5
2FED
  8
0
  0
BLOCK
  8
0
  2
*X18
 70
     1
 10
0.0
 20
0.0
 30
0.0
  3
*X18
  1

  0
POLYLINE
  5
2C9F
  8
0
 66
     1
 10
0.0
 20
0.0
 30
0.0
 70
    64
 71
     4
 72
     2
  0
VERTEX
  5
2CA0
  8
0
 10
9.999999999999943
 20
345.4999999999999
 30
-62.00000000000002
 70
   192
  0
VERTEX
  5
2CA1
  8
0
 10
9.999999999999943
 20
350.4999999999999
 30
-62.00000000000002
 70
   192
  0
VERTEX
  5
2CA2
  8
0
 10
9.999999999999943
 20
350.4999999999999
 30
57.99999999999998
 70
   192
  0
VERTEX
  5
2CA3
  8
0
 10
9.999999999999943
 20
345.4999999999999
 30
57.99999999999998
 70
   192
  0
VERTEX
  5
2CA4
  8
0
 10
0.0
 20
0.0
 30
0.0
 70
   128
 71
     1
 72
     4
 73
    -3
  0
VERTEX
  5
2CA5
  8
0
 10
0.0
 20
0.0
 30
0.0
 70
   128
 71
    -1
 72
     3
 73
     2
  0
SEQEND
  5
2FF6
  8
0
  0
POLYLINE
  5
2CA6
  8
0
 66
     1
 10
0.0
 20
0.0
 30
0.0
 70
    64
 71
     4
 72
     2
  0
VERTEX
  5
2CA7
  8
0
 10
9.999999999999943
 20
345.4999999999999
 30
57.99999999999998
 70
   192
  0
VERTEX
  5
2CA8
  8
0
 10
9.999999999999943
 20
350.4999999999999
 30
57.99999999999998
 70
   192
  0
VERTEX
  5
2CA9
  8
0
 10
383.9999999999999
 20
350.4999999999999
 30
57.99999999999994
 70
   192
  0
VERTEX
  5
2CAA
  8
0
 10
383.9999999999999
 20
345.4999999999999
 30
57.99999999999994
 70
   192
  0
VERTEX
  5
2CAB
  8
0
 10
0.0
 20
0.0
 30
0.0
 70
   128
 71
     1
 72
     4
 73
    -3
  0
VERTEX
  5
2CAC
  8
0
 10
0.0
 20
0.0
 30
0.0
 70
   128
 71
    -1
 72
     3
 73
     2
  0
SEQEND
  5
2FF7
  8
0
  0
POLYLINE
  5
2CAD
  8
0
 66
     1
 10
0.0
 20
0.0
 30
0.0
 70
    64
 71
     4
 72
     2
  0
VERTEX
  5
2CAE
  8
0
 10
383.9999999999999
 20
345.4999999999999
 30
57.99999999999994
 70
   192
  0
VERTEX
  5
2CAF
  8
0
 10
383.9999999999999
 20
350.4999999999999
 30
57.99999999999994
 70
   192
  0
VERTEX
  5
2CB0
  8
0
 10
383.9999999999999
 20
350.4999999999999
 30
-62.00000000000007
 70
   192
  0
VERTEX
  5
2CB1
  8
0
 10
383.9999999999999
 20
345.4999999999999
 30
-62.00000000000006
 70
   192
  0
VERTEX
  5
2CB2
  8
0
 10
0.0
 20
0.0
 30
0.0
 70
   128
 71
     1
 72
     4
 73
    -3
  0
VERTEX
  5
2CB3
  8
0
 10
0.0
 20
0.0
 30
0.0
 70
   128
 71
    -1
 72
     3
 73
     2
  0
SEQEND
  5
2FF8
  8
0
  0
POLYLINE
  5
2CB4
  8
0
 66
     1
 10
0.0
 20
0.0
 30
0.0
 70
    64
 71
     4
 72
     2
  0
VERTEX
  5
2CB5
  8
0
 10
383.9999999999999
 20
345.4999999999999
 30
-62.00000000000007
 70
   192
  0
VERTEX
  5
2CB6
  8
0
 10
383.9999999999999
 20
350.4999999999999
 30
-62.00000000000007
 70
   192
  0
VERTEX
  5
2CB7
  8
0
 10
9.999999999999943
 20
350.4999999999999
 30
-62.00000000000002
 70
   192
  0
VERTEX
  5
2CB8
  8
0
 10
9.999999999999943
 20
345.4999999999999
 30
-62.00000000000002
 70
   192
  0
VERTEX
  5
2CB9
  8
0
 10
0.0
 20
0.0
 30
0.0
 70
   128
 71
     1
 72
     4
 73
    -3
  0
VERTEX
  5
2CBA
  8
0
 10
0.0
 20
0.0
 30
0.0
 70
   128
 71
    -1
 72
     3
 73
     2
  0
SEQEND
  5
2FF9
  8
0
  0
POLYLINE
  5
2CBB
  8
0
 66
     1
 10
0.0
 20
0.0
 30
0.0
 70
    64
 71
     4
 72
     2
  0
VERTEX
  5
2CBC
  8
0
 10
9.999999999999943
 20
350.4999999999999
 30
-62.00000000000002
 70
   192
  0
VERTEX
  5
2CBD
  8
0
 10
9.999999999999943
 20
350.4999999999999
 30
57.99999999999998
 70
   192
  0
VERTEX
  5
2CBE
  8
0
 10
383.9999999999999
 20
350.4999999999999
 30
57.99999999999994
 70
   192
  0
VERTEX
  5
2CBF
  8
0
 10
383.9999999999999
 20
350.4999999999999
 30
-62.00000000000006
 70
   192
  0
VERTEX
  5
2CC0
  8
0
 10
0.0
 20
0.0
 30
0.0
 70
   128
 71
     3
 72
     4
 73
    -1
  0
VERTEX
  5
2CC1
  8
0
 10
0.0
 20
0.0
 30
0.0
 70
   128
 71
     2
 72
    -3
 73
     1
  0
SEQEND
  5
2FFA
  8
0
  0
POLYLINE
  5
2CC2
  8
0
 66
     1
 10
0.0
 20
0.0
 30
0.0
 70
    64
 71
     4
 72
     2
  0
VERTEX
  5
2CC3
  8
0
 10
9.999999999999943
 20
345.4999999999999
 30
57.99999999999998
 70
   192
  0
VERTEX
  5
2CC4
  8
0
 10
383.9999999999999
 20
345.4999999999999
 30
57.99999999999994
 70
   192
  0
VERTEX
  5
2CC5
  8
0
 10
383.9999999999999
 20
345.4999999999999
 30
-62.00000000000007
 70
   192
  0
VERTEX
  5
2CC6
  8
0
 10
9.999999999999943
 20
345.4999999999999
 30
-62.00000000000002
 70
   192
  0
VERTEX
  5
2CC7
  8
0
 10
0.0
 20
0.0
 30
0.0
 70
   128
 71
     1
 72
     4
 73
    -3
  0
VERTEX
  5
2CC8
  8
0
 10
0.0
 20
0.0
 30
0.0
 70
   128
 71
    -1
 72
     3
 73
     2
  0
SEQEND
  5
2FFB
  8
0
  0
ENDBLK
  5
2FF5
  8
0
  0
BLOCK
  8
0
  2
*X19
 70
     1
 10
0.0
 20
0.0
 30
0.0
  3
*X19
  1

  0
POLYLINE
  5
2CCA
  8
0
 66
     1
 10
0.0
 20
0.0
 30
0.0
 70
    64
 71
     4
 72
     2
  0
VERTEX
  5
2CCB
  8
0
 10
9.999999999999943
 20
162.9999999999999
 30
-62.00000000000002
 70
   192
  0
VERTEX
  5
2CCC
  8
0
 10
9.999999999999943
 20
167.9999999999999
 30
-62.00000000000002
 70
   192
  0
VERTEX
  5
2CCD
  8
0
 10
9.999999999999943
 20
167.9999999999999
 30
57.99999999999998
 70
   192
  0
VERTEX
  5
2CCE
  8
0
 10
9.999999999999943
 20
162.9999999999999
 30
57.99999999999998
 70
   192
  0
VERTEX
  5
2CCF
  8
0
 10
0.0
 20
0.0
 30
0.0
 70
   128
 71
     1
 72
     4
 73
    -3
  0
VERTEX
  5
2CD0
  8
0
 10
0.0
 20
0.0
 30
0.0
 70
   128
 71
    -1
 72
     3
 73
     2
  0
SEQEND
  5
2FFE
  8
0
  0
POLYLINE
  5
2CD1
  8
0
 66
     1
 10
0.0
 20
0.0
 30
0.0
 70
    64
 71
     4
 72
     2
  0
VERTEX
  5
2CD2
  8
0
 10
9.999999999999943
 20
162.9999999999999
 30
57.99999999999998
 70
   192
  0
VERTEX
  5
2CD3
  8
0
 10
9.999999999999943
 20
167.9999999999999
 30
57.99999999999998
 70
   192
  0
VERTEX
  5
2CD4
  8
0
 10
383.9999999999999
 20
167.9999999999999
 30
57.99999999999994
 70
   192
  0
VERTEX
  5
2CD5
  8
0
 10
383.9999999999999
 20
162.9999999999999
 30
57.99999999999994
 70
   192
  0
VERTEX
  5
2CD6
  8
0
 10
0.0
 20
0.0
 30
0.0
 70
   128
 71
     1
 72
     4
 73
    -3
  0
VERTEX
  5
2CD7
  8
0
 10
0.0
 20
0.0
 30
0.0
 70
   128
 71
    -1
 72
     3
 73
     2
  0
SEQEND
  5
2FFF
  8
0
  0
POLYLINE
  5
2CD8
  8
0
 66
     1
 10
0.0
 20
0.0
 30
0.0
 70
    64
 71
     4
 72
     2
  0
VERTEX
  5
2CD9
  8
0
 10
383.9999999999999
 20
162.9999999999999
 30
57.99999999999994
 70
   192
  0
VERTEX
  5
2CDA
  8
0
 10
383.9999999999999
 20
167.9999999999999
 30
57.99999999999994
 70
   192
  0
VERTEX
  5
2CDB
  8
0
 10
383.9999999999999
 20
167.9999999999999
 30
-62.00000000000007
 70
   192
  0
VERTEX
  5
2CDC
  8
0
 10
383.9999999999999
 20
162.9999999999999
 30
-62.00000000000006
 70
   192
  0
VERTEX
  5
2CDD
  8
0
 10
0.0
 20
0.0
 30
0.0
 70
   128
 71
     1
 72
     4
 73
    -3
  0
VERTEX
  5
2CDE
  8
0
 10
0.0
 20
0.0
 30
0.0
 70
   128
 71
    -1
 72
     3
 73
     2
  0
SEQEND
  5
3000
  8
0
  0
POLYLINE
  5
2CDF
  8
0
 66
     1
 10
0.0
 20
0.0
 30
0.0
 70
    64
 71
     4
 72
     2
  0
VERTEX
  5
2CE0
  8
0
 10
383.9999999999999
 20
162.9999999999999
 30
-62.00000000000007
 70
   192
  0
VERTEX
  5
2CE1
  8
0
 10
383.9999999999999
 20
167.9999999999999
 30
-62.00000000000007
 70
   192
  0
VERTEX
  5
2CE2
  8
0
 10
9.999999999999943
 20
167.9999999999999
 30
-62.00000000000002
 70
   192
  0
VERTEX
  5
2CE3
  8
0
 10
9.999999999999943
 20
162.9999999999999
 30
-62.00000000000002
 70
   192
  0
VERTEX
  5
2CE4
  8
0
 10
0.0
 20
0.0
 30
0.0
 70
   128
 71
     1
 72
     4
 73
    -3
  0
VERTEX
  5
2CE5
  8
0
 10
0.0
 20
0.0
 30
0.0
 70
   128
 71
    -1
 72
     3
 73
     2
  0
SEQEND
  5
3001
  8
0
  0
POLYLINE
  5
2CE6
  8
0
 66
     1
 10
0.0
 20
0.0
 30
0.0
 70
    64
 71
     4
 72
     2
  0
VERTEX
  5
2CE7
  8
0
 10
9.999999999999943
 20
167.9999999999999
 30
-62.00000000000002
 70
   192
  0
VERTEX
  5
2CE8
  8
0
 10
9.999999999999943
 20
167.9999999999999
 30
57.99999999999998
 70
   192
  0
VERTEX
  5
2CE9
  8
0
 10
383.9999999999999
 20
167.9999999999999
 30
57.99999999999994
 70
   192
  0
VERTEX
  5
2CEA
  8
0
 10
383.9999999999999
 20
167.9999999999999
 30
-62.00000000000006
 70
   192
  0
VERTEX
  5
2CEB
  8
0
 10
0.0
 20
0.0
 30
0.0
 70
   128
 71
     3
 72
     4
 73
    -1
  0
VERTEX
  5
2CEC
  8
0
 10
0.0
 20
0.0
 30
0.0
 70
   128
 71
     2
 72
    -3
 73
     1
  0
SEQEND
  5
3002
  8
0
  0
POLYLINE
  5
2CED
  8
0
 66
     1
 10
0.0
 20
0.0
 30
0.0
 70
    64
 71
     4
 72
     2
  0
VERTEX
  5
2CEE
  8
0
 10
9.999999999999943
 20
162.9999999999999
 30
57.99999999999998
 70
   192
  0
VERTEX
  5
2CEF
  8
0
 10
383.9999999999999
 20
162.9999999999999
 30
57.99999999999994
 70
   192
  0
VERTEX
  5
2CF0
  8
0
 10
383.9999999999999
 20
162.9999999999999
 30
-62.00000000000007
 70
   192
  0
VERTEX
  5
2CF1
  8
0
 10
9.999999999999943
 20
162.9999999999999
 30
-62.00000000000002
 70
   192
  0
VERTEX
  5
2CF2
  8
0
 10
0.0
 20
0.0
 30
0.0
 70
   128
 71
     1
 72
     4
 73
    -3
  0
VERTEX
  5
2CF3
  8
0
 10
0.0
 20
0.0
 30
0.0
 70
   128
 71
    -1
 72
     3
 73
     2
  0
SEQEND
  5
3003
  8
0
  0
ENDBLK
  5
2FFD
  8
0
  0
BLOCK
  8
0
  2
*X20
 70
     1
 10
0.0
 20
0.0
 30
0.0
  3
*X20
  1

  0
POLYLINE
  5
2CF5
  8
0
 66
     1
 10
0.0
 20
0.0
 30
0.0
 70
    64
 71
     4
 72
     2
  0
VERTEX
  5
2CF6
  8
0
 10
-384.0000000000001
 20
527.9999999999999
 30
-62.00000000000002
 70
   192
  0
VERTEX
  5
2CF7
  8
0
 10
-384.0000000000001
 20
532.9999999999999
 30
-62.00000000000002
 70
   192
  0
VERTEX
  5
2CF8
  8
0
 10
-384.0000000000001
 20
532.9999999999999
 30
57.99999999999998
 70
   192
  0
VERTEX
  5
2CF9
  8
0
 10
-384.0000000000001
 20
527.9999999999999
 30
57.99999999999998
 70
   192
  0
VERTEX
  5
2CFA
  8
0
 10
0.0
 20
0.0
 30
0.0
 70
   128
 71
     1
 72
     4
 73
    -3
  0
VERTEX
  5
2CFB
  8
0
 10
0.0
 20
0.0
 30
0.0
 70
   128
 71
    -1
 72
     3
 73
     2
  0
SEQEND
  5
3006
  8
0
  0
POLYLINE
  5
2CFC
  8
0
 66
     1
 10
0.0
 20
0.0
 30
0.0
 70
    64
 71
     4
 72
     2
  0
VERTEX
  5
2CFD
  8
0
 10
-384.0000000000001
 20
527.9999999999999
 30
57.99999999999998
 70
   192
  0
VERTEX
  5
2CFE
  8
0
 10
-384.0000000000001
 20
532.9999999999999
 30
57.99999999999998
 70
   192
  0
VERTEX
  5
2CFF
  8
0
 10
-10.00000000000006
 20
532.9999999999999
 30
57.99999999999994
 70
   192
  0
VERTEX
  5
2D00
  8
0
 10
-10.00000000000006
 20
527.9999999999999
 30
57.99999999999994
 70
   192
  0
VERTEX
  5
2D01
  8
0
 10
0.0
 20
0.0
 30
0.0
 70
   128
 71
     1
 72
     4
 73
    -3
  0
VERTEX
  5
2D02
  8
0
 10
0.0
 20
0.0
 30
0.0
 70
   128
 71
    -1
 72
     3
 73
     2
  0
SEQEND
  5
3007
  8
0
  0
POLYLINE
  5
2D03
  8
0
 66
     1
 10
0.0
 20
0.0
 30
0.0
 70
    64
 71
     4
 72
     2
  0
VERTEX
  5
2D04
  8
0
 10
-10.00000000000006
 20
527.9999999999999
 30
57.99999999999994
 70
   192
  0
VERTEX
  5
2D05
  8
0
 10
-10.00000000000006
 20
532.9999999999999
 30
57.99999999999994
 70
   192
  0
VERTEX
  5
2D06
  8
0
 10
-10.00000000000006
 20
532.9999999999999
 30
-62.00000000000007
 70
   192
  0
VERTEX
  5
2D07
  8
0
 10
-10.00000000000006
 20
527.9999999999999
 30
-62.00000000000006
 70
   192
  0
VERTEX
  5
2D08
  8
0
 10
0.0
 20
0.0
 30
0.0
 70
   128
 71
     1
 72
     4
 73
    -3
  0
VERTEX
  5
2D09
  8
0
 10
0.0
 20
0.0
 30
0.0
 70
   128
 71
    -1
 72
     3
 73
     2
  0
SEQEND
  5
3008
  8
0
  0
POLYLINE
  5
2D0A
  8
0
 66
     1
 10
0.0
 20
0.0
 30
0.0
 70
    64
 71
     4
 72
     2
  0
VERTEX
  5
2D0B
  8
0
 10
-10.00000000000006
 20
527.9999999999999
 30
-62.00000000000007
 70
   192
  0
VERTEX
  5
2D0C
  8
0
 10
-10.00000000000006
 20
532.9999999999999
 30
-62.00000000000007
 70
   192
  0
VERTEX
  5
2D0D
  8
0
 10
-384.0000000000001
 20
532.9999999999999
 30
-62.00000000000002
 70
   192
  0
VERTEX
  5
2D0E
  8
0
 10
-384.0000000000001
 20
527.9999999999999
 30
-62.00000000000002
 70
   192
  0
VERTEX
  5
2D0F
  8
0
 10
0.0
 20
0.0
 30
0.0
 70
   128
 71
     1
 72
     4
 73
    -3
  0
VERTEX
  5
2D10
  8
0
 10
0.0
 20
0.0
 30
0.0
 70
   128
 71
    -1
 72
     3
 73
     2
  0
SEQEND
  5
3009
  8
0
  0
POLYLINE
  5
2D11
  8
0
 66
     1
 10
0.0
 20
0.0
 30
0.0
 70
    64
 71
     4
 72
     2
  0
VERTEX
  5
2D12
  8
0
 10
-384.0000000000001
 20
532.9999999999999
 30
-62.00000000000002
 70
   192
  0
VERTEX
  5
2D13
  8
0
 10
-384.0000000000001
 20
532.9999999999999
 30
57.99999999999998
 70
   192
  0
VERTEX
  5
2D14
  8
0
 10
-10.00000000000006
 20
532.9999999999999
 30
57.99999999999994
 70
   192
  0
VERTEX
  5
2D15
  8
0
 10
-10.00000000000006
 20
532.9999999999999
 30
-62.00000000000006
 70
   192
  0
VERTEX
  5
2D16
  8
0
 10
0.0
 20
0.0
 30
0.0
 70
   128
 71
     3
 72
     4
 73
    -1
  0
VERTEX
  5
2D17
  8
0
 10
0.0
 20
0.0
 30
0.0
 70
   128
 71
     2
 72
    -3
 73
     1
  0
SEQEND
  5
300A
  8
0
  0
POLYLINE
  5
2D18
  8
0
 66
     1
 10
0.0
 20
0.0
 30
0.0
 70
    64
 71
     4
 72
     2
  0
VERTEX
  5
2D19
  8
0
 10
-384.0000000000001
 20
527.9999999999999
 30
57.99999999999998
 70
   192
  0
VERTEX
  5
2D1A
  8
0
 10
-10.00000000000006
 20
527.9999999999999
 30
57.99999999999994
 70
   192
  0
VERTEX
  5
2D1B
  8
0
 10
-10.00000000000006
 20
527.9999999999999
 30
-62.00000000000007
 70
   192
  0
VERTEX
  5
2D1C
  8
0
 10
-384.0000000000001
 20
527.9999999999999
 30
-62.00000000000002
 70
   192
  0
VERTEX
  5
2D1D
  8
0
 10
0.0
 20
0.0
 30
0.0
 70
   128
 71
     1
 72
     4
 73
    -3
  0
VERTEX
  5
2D1E
  8
0
 10
0.0
 20
0.0
 30
0.0
 70
   128
 71
    -1
 72
     3
 73
     2
  0
SEQEND
  5
300B
  8
0
  0
ENDBLK
  5
3005
  8
0
  0
BLOCK
  8
0
  2
*X21
 70
     1
 10
0.0
 20
0.0
 30
0.0
  3
*X21
  1

  0
POLYLINE
  5
2D20
  8
0
 66
     1
 10
0.0
 20
0.0
 30
0.0
 70
    64
 71
     4
 72
     2
  0
VERTEX
  5
2D21
  8
0
 10
-384.0000000000001
 20
345.4999999999999
 30
-62.00000000000002
 70
   192
  0
VERTEX
  5
2D22
  8
0
 10
-384.0000000000001
 20
350.4999999999999
 30
-62.00000000000002
 70
   192
  0
VERTEX
  5
2D23
  8
0
 10
-384.0000000000001
 20
350.4999999999999
 30
57.99999999999998
 70
   192
  0
VERTEX
  5
2D24
  8
0
 10
-384.0000000000001
 20
345.4999999999999
 30
57.99999999999998
 70
   192
  0
VERTEX
  5
2D25
  8
0
 10
0.0
 20
0.0
 30
0.0
 70
   128
 71
     1
 72
     4
 73
    -3
  0
VERTEX
  5
2D26
  8
0
 10
0.0
 20
0.0
 30
0.0
 70
   128
 71
    -1
 72
     3
 73
     2
  0
SEQEND
  5
300E
  8
0
  0
POLYLINE
  5
2D27
  8
0
 66
     1
 10
0.0
 20
0.0
 30
0.0
 70
    64
 71
     4
 72
     2
  0
VERTEX
  5
2D28
  8
0
 10
-384.0000000000001
 20
345.4999999999999
 30
57.99999999999998
 70
   192
  0
VERTEX
  5
2D29
  8
0
 10
-384.0000000000001
 20
350.4999999999999
 30
57.99999999999998
 70
   192
  0
VERTEX
  5
2D2A
  8
0
 10
-10.00000000000006
 20
350.4999999999999
 30
57.99999999999994
 70
   192
  0
VERTEX
  5
2D2B
  8
0
 10
-10.00000000000006
 20
345.4999999999999
 30
57.99999999999994
 70
   192
  0
VERTEX
  5
2D2C
  8
0
 10
0.0
 20
0.0
 30
0.0
 70
   128
 71
     1
 72
     4
 73
    -3
  0
VERTEX
  5
2D2D
  8
0
 10
0.0
 20
0.0
 30
0.0
 70
   128
 71
    -1
 72
     3
 73
     2
  0
SEQEND
  5
300F
  8
0
  0
POLYLINE
  5
2D2E
  8
0
 66
     1
 10
0.0
 20
0.0
 30
0.0
 70
    64
 71
     4
 72
     2
  0
VERTEX
  5
2D2F
  8
0
 10
-10.00000000000006
 20
345.4999999999999
 30
57.99999999999994
 70
   192
  0
VERTEX
  5
2D30
  8
0
 10
-10.00000000000006
 20
350.4999999999999
 30
57.99999999999994
 70
   192
  0
VERTEX
  5
2D31
  8
0
 10
-10.00000000000006
 20
350.4999999999999
 30
-62.00000000000007
 70
   192
  0
VERTEX
  5
2D32
  8
0
 10
-10.00000000000006
 20
345.4999999999999
 30
-62.00000000000006
 70
   192
  0
VERTEX
  5
2D33
  8
0
 10
0.0
 20
0.0
 30
0.0
 70
   128
 71
     1
 72
     4
 73
    -3
  0
VERTEX
  5
2D34
  8
0
 10
0.0
 20
0.0
 30
0.0
 70
   128
 71
    -1
 72
     3
 73
     2
  0
SEQEND
  5
3010
  8
0
  0
POLYLINE
  5
2D35
  8
0
 66
     1
 10
0.0
 20
0.0
 30
0.0
 70
    64
 71
     4
 72
     2
  0
VERTEX
  5
2D36
  8
0
 10
-10.00000000000006
 20
345.4999999999999
 30
-62.00000000000007
 70
   192
  0
VERTEX
  5
2D37
  8
0
 10
-10.00000000000006
 20
350.4999999999999
 30
-62.00000000000007
 70
   192
  0
VERTEX
  5
2D38
  8
0
 10
-384.0000000000001
 20
350.4999999999999
 30
-62.00000000000002
 70
   192
  0
VERTEX
  5
2D39
  8
0
 10
-384.0000000000001
 20
345.4999999999999
 30
-62.00000000000002
 70
   192
  0
VERTEX
  5
2D3A
  8
0
 10
0.0
 20
0.0
 30
0.0
 70
   128
 71
     1
 72
     4
 73
    -3
  0
VERTEX
  5
2D3B
  8
0
 10
0.0
 20
0.0
 30
0.0
 70
   128
 71
    -1
 72
     3
 73
     2
  0
SEQEND
  5
3011
  8
0
  0
POLYLINE
  5
2D3C
  8
0
 66
     1
 10
0.0
 20
0.0
 30
0.0
 70
    64
 71
     4
 72
     2
  0
VERTEX
  5
2D3D
  8
0
 10
-384.0000000000001
 20
350.4999999999999
 30
-62.00000000000002
 70
   192
  0
VERTEX
  5
2D3E
  8
0
 10
-384.0000000000001
 20
350.4999999999999
 30
57.99999999999998
 70
   192
  0
VERTEX
  5
2D3F
  8
0
 10
-10.00000000000006
 20
350.4999999999999
 30
57.99999999999994
 70
   192
  0
VERTEX
  5
2D40
  8
0
 10
-10.00000000000006
 20
350.4999999999999
 30
-62.00000000000006
 70
   192
  0
VERTEX
  5
2D41
  8
0
 10
0.0
 20
0.0
 30
0.0
 70
   128
 71
     3
 72
     4
 73
    -1
  0
VERTEX
  5
2D42
  8
0
 10
0.0
 20
0.0
 30
0.0
 70
   128
 71
     2
 72
    -3
 73
     1
  0
SEQEND
  5
3012
  8
0
  0
POLYLINE
  5
2D43
  8
0
 66
     1
 10
0.0
 20
0.0
 30
0.0
 70
    64
 71
     4
 72
     2
  0
VERTEX
  5
2D44
  8
0
 10
-384.0000000000001
 20
345.4999999999999
 30
57.99999999999998
 70
   192
  0
VERTEX
  5
2D45
  8
0
 10
-10.00000000000006
 20
345.4999999999999
 30
57.99999999999994
 70
   192
  0
VERTEX
  5
2D46
  8
0
 10
-10.00000000000006
 20
345.4999999999999
 30
-62.00000000000007
 70
   192
  0
VERTEX
  5
2D47
  8
0
 10
-384.0000000000001
 20
345.4999999999999
 30
-62.00000000000002
 70
   192
  0
VERTEX
  5
2D48
  8
0
 10
0.0
 20
0.0
 30
0.0
 70
   128
 71
     1
 72
     4
 73
    -3
  0
VERTEX
  5
2D49
  8
0
 10
0.0
 20
0.0
 30
0.0
 70
   128
 71
    -1
 72
     3
 73
     2
  0
SEQEND
  5
3013
  8
0
  0
ENDBLK
  5
300D
  8
0
  0
BLOCK
  8
0
  2
*X22
 70
     1
 10
0.0
 20
0.0
 30
0.0
  3
*X22
  1

  0
POLYLINE
  5
2D4B
  8
0
 66
     1
 10
0.0
 20
0.0
 30
0.0
 70
    64
 71
     4
 72
     2
  0
VERTEX
  5
2D4C
  8
0
 10
-384.0000000000001
 20
162.9999999999999
 30
-62.00000000000002
 70
   192
  0
VERTEX
  5
2D4D
  8
0
 10
-384.0000000000001
 20
167.9999999999999
 30
-62.00000000000002
 70
   192
  0
VERTEX
  5
2D4E
  8
0
 10
-384.0000000000001
 20
167.9999999999999
 30
57.99999999999998
 70
   192
  0
VERTEX
  5
2D4F
  8
0
 10
-384.0000000000001
 20
162.9999999999999
 30
57.99999999999998
 70
   192
  0
VERTEX
  5
2D50
  8
0
 10
0.0
 20
0.0
 30
0.0
 70
   128
 71
     1
 72
     4
 73
    -3
  0
VERTEX
  5
2D51
  8
0
 10
0.0
 20
0.0
 30
0.0
 70
   128
 71
    -1
 72
     3
 73
     2
  0
SEQEND
  5
3016
  8
0
  0
POLYLINE
  5
2D52
  8
0
 66
     1
 10
0.0
 20
0.0
 30
0.0
 70
    64
 71
     4
 72
     2
  0
VERTEX
  5
2D53
  8
0
 10
-384.0000000000001
 20
162.9999999999999
 30
57.99999999999998
 70
   192
  0
VERTEX
  5
2D54
  8
0
 10
-384.0000000000001
 20
167.9999999999999
 30
57.99999999999998
 70
   192
  0
VERTEX
  5
2D55
  8
0
 10
-10.00000000000006
 20
167.9999999999999
 30
57.99999999999994
 70
   192
  0
VERTEX
  5
2D56
  8
0
 10
-10.00000000000006
 20
162.9999999999999
 30
57.99999999999994
 70
   192
  0
VERTEX
  5
2D57
  8
0
 10
0.0
 20
0.0
 30
0.0
 70
   128
 71
     1
 72
     4
 73
    -3
  0
VERTEX
  5
2D58
  8
0
 10
0.0
 20
0.0
 30
0.0
 70
   128
 71
    -1
 72
     3
 73
     2
  0
SEQEND
  5
3017
  8
0
  0
POLYLINE
  5
2D59
  8
0
 66
     1
 10
0.0
 20
0.0
 30
0.0
 70
    64
 71
     4
 72
     2
  0
VERTEX
  5
2D5A
  8
0
 10
-10.00000000000006
 20
162.9999999999999
 30
57.99999999999994
 70
   192
  0
VERTEX
  5
2D5B
  8
0
 10
-10.00000000000006
 20
167.9999999999999
 30
57.99999999999994
 70
   192
  0
VERTEX
  5
2D5C
  8
0
 10
-10.00000000000006
 20
167.9999999999999
 30
-62.00000000000007
 70
   192
  0
VERTEX
  5
2D5D
  8
0
 10
-10.00000000000006
 20
162.9999999999999
 30
-62.00000000000006
 70
   192
  0
VERTEX
  5
2D5E
  8
0
 10
0.0
 20
0.0
 30
0.0
 70
   128
 71
     1
 72
     4
 73
    -3
  0
VERTEX
  5
2D5F
  8
0
 10
0.0
 20
0.0
 30
0.0
 70
   128
 71
    -1
 72
     3
 73
     2
  0
SEQEND
  5
3018
  8
0
  0
POLYLINE
  5
2D60
  8
0
 66
     1
 10
0.0
 20
0.0
 30
0.0
 70
    64
 71
     4
 72
     2
  0
VERTEX
  5
2D61
  8
0
 10
-10.00000000000006
 20
162.9999999999999
 30
-62.00000000000007
 70
   192
  0
VERTEX
  5
2D62
  8
0
 10
-10.00000000000006
 20
167.9999999999999
 30
-62.00000000000007
 70
   192
  0
VERTEX
  5
2D63
  8
0
 10
-384.0000000000001
 20
167.9999999999999
 30
-62.00000000000002
 70
   192
  0
VERTEX
  5
2D64
  8
0
 10
-384.0000000000001
 20
162.9999999999999
 30
-62.00000000000002
 70
   192
  0
VERTEX
  5
2D65
  8
0
 10
0.0
 20
0.0
 30
0.0
 70
   128
 71
     1
 72
     4
 73
    -3
  0
VERTEX
  5
2D66
  8
0
 10
0.0
 20
0.0
 30
0.0
 70
   128
 71
    -1
 72
     3
 73
     2
  0
SEQEND
  5
3019
  8
0
  0
POLYLINE
  5
2D67
  8
0
 66
     1
 10
0.0
 20
0.0
 30
0.0
 70
    64
 71
     4
 72
     2
  0
VERTEX
  5
2D68
  8
0
 10
-384.0000000000001
 20
167.9999999999999
 30
-62.00000000000002
 70
   192
  0
VERTEX
  5
2D69
  8
0
 10
-384.0000000000001
 20
167.9999999999999
 30
57.99999999999998
 70
   192
  0
VERTEX
  5
2D6A
  8
0
 10
-10.00000000000006
 20
167.9999999999999
 30
57.99999999999994
 70
   192
  0
VERTEX
  5
2D6B
  8
0
 10
-10.00000000000006
 20
167.9999999999999
 30
-62.00000000000006
 70
   192
  0
VERTEX
  5
2D6C
  8
0
 10
0.0
 20
0.0
 30
0.0
 70
   128
 71
     3
 72
     4
 73
    -1
  0
VERTEX
  5
2D6D
  8
0
 10
0.0
 20
0.0
 30
0.0
 70
   128
 71
     2
 72
    -3
 73
     1
  0
SEQEND
  5
301A
  8
0
  0
POLYLINE
  5
2D6E
  8
0
 66
     1
 10
0.0
 20
0.0
 30
0.0
 70
    64
 71
     4
 72
     2
  0
VERTEX
  5
2D6F
  8
0
 10
-384.0000000000001
 20
162.9999999999999
 30
57.99999999999998
 70
   192
  0
VERTEX
  5
2D70
  8
0
 10
-10.00000000000006
 20
162.9999999999999
 30
57.99999999999994
 70
   192
  0
VERTEX
  5
2D71
  8
0
 10
-10.00000000000006
 20
162.9999999999999
 30
-62.00000000000007
 70
   192
  0
VERTEX
  5
2D72
  8
0
 10
-384.0000000000001
 20
162.9999999999999
 30
-62.00000000000002
 70
   192
  0
VERTEX
  5
2D73
  8
0
 10
0.0
 20
0.0
 30
0.0
 70
   128
 71
     1
 72
     4
 73
    -3
  0
VERTEX
  5
2D74
  8
0
 10
0.0
 20
0.0
 30
0.0
 70
   128
 71
    -1
 72
     3
 73
     2
  0
SEQEND
  5
301B
  8
0
  0
ENDBLK
  5
3015
  8
0
  0
BLOCK
  8
0
  2
*X23
 70
     1
 10
0.0
 20
0.0
 30
0.0
  3
*X23
  1

  0
POLYLINE
  5
2D76
  8
0
 66
     1
 10
0.0
 20
0.0
 30
0.0
 70
    64
 71
     4
 72
     2
  0
VERTEX
  5
2D77
  8
0
 10
-20.50000000000011
 20
702.0000000000001
 30
32.00000000000023
 70
   192
  0
VERTEX
  5
2D78
  8
0
 10
-20.50000000000011
 20
723.0000000000001
 30
32.00000000000023
 70
   192
  0
VERTEX
  5
2D79
  8
0
 10
-20.5000000000001
 20
723.0000000000001
 30
47.00000000000023
 70
   192
  0
VERTEX
  5
2D7A
  8
0
 10
-20.5000000000001
 20
702.0000000000001
 30
47.00000000000023
 70
   192
  0
VERTEX
  5
2D7B
  8
0
 10
0.0
 20
0.0
 30
0.0
 70
   128
 71
     1
 72
     4
 73
    -3
  0
VERTEX
  5
2D7C
  8
0
 10
0.0
 20
0.0
 30
0.0
 70
   128
 71
    -1
 72
     3
 73
     2
  0
SEQEND
  5
301E
  8
0
  0
POLYLINE
  5
2D7D
  8
0
 66
     1
 10
0.0
 20
0.0
 30
0.0
 70
    64
 71
     4
 72
     2
  0
VERTEX
  5
2D7E
  8
0
 10
-20.5000000000001
 20
702.0000000000001
 30
47.00000000000023
 70
   192
  0
VERTEX
  5
2D7F
  8
0
 10
-20.5000000000001
 20
723.0000000000001
 30
47.00000000000023
 70
   192
  0
VERTEX
  5
2D80
  8
0
 10
20.49999999999982
 20
723.0000000000001
 30
47.00000000000023
 70
   192
  0
VERTEX
  5
2D81
  8
0
 10
20.49999999999983
 20
702.0000000000001
 30
47.00000000000023
 70
   192
  0
VERTEX
  5
2D82
  8
0
 10
0.0
 20
0.0
 30
0.0
 70
   128
 71
     1
 72
     4
 73
    -3
  0
VERTEX
  5
2D83
  8
0
 10
0.0
 20
0.0
 30
0.0
 70
   128
 71
    -1
 72
     3
 73
     2
  0
SEQEND
  5
301F
  8
0
  0
POLYLINE
  5
2D84
  8
0
 66
     1
 10
0.0
 20
0.0
 30
0.0
 70
    64
 71
     4
 72
     2
  0
VERTEX
  5
2D85
  8
0
 10
20.49999999999982
 20
702.0000000000001
 30
47.00000000000023
 70
   192
  0
VERTEX
  5
2D86
  8
0
 10
20.49999999999982
 20
723.0000000000001
 30
47.00000000000023
 70
   192
  0
VERTEX
  5
2D87
  8
0
 10
20.49999999999982
 20
723.0000000000001
 30
32.00000000000023
 70
   192
  0
VERTEX
  5
2D88
  8
0
 10
20.49999999999982
 20
702.0000000000001
 30
32.00000000000023
 70
   192
  0
VERTEX
  5
2D89
  8
0
 10
0.0
 20
0.0
 30
0.0
 70
   128
 71
     1
 72
     4
 73
    -3
  0
VERTEX
  5
2D8A
  8
0
 10
0.0
 20
0.0
 30
0.0
 70
   128
 71
    -1
 72
     3
 73
     2
  0
SEQEND
  5
3020
  8
0
  0
POLYLINE
  5
2D8B
  8
0
 66
     1
 10
0.0
 20
0.0
 30
0.0
 70
    64
 71
     4
 72
     2
  0
VERTEX
  5
2D8C
  8
0
 10
20.49999999999982
 20
702.0000000000001
 30
32.00000000000023
 70
   192
  0
VERTEX
  5
2D8D
  8
0
 10
20.49999999999982
 20
723.0000000000001
 30
32.00000000000023
 70
   192
  0
VERTEX
  5
2D8E
  8
0
 10
-20.50000000000011
 20
723.0000000000001
 30
32.00000000000023
 70
   192
  0
VERTEX
  5
2D8F
  8
0
 10
-20.50000000000011
 20
702.0000000000001
 30
32.00000000000023
 70
   192
  0
VERTEX
  5
2D90
  8
0
 10
0.0
 20
0.0
 30
0.0
 70
   128
 71
     1
 72
     4
 73
    -3
  0
VERTEX
  5
2D91
  8
0
 10
0.0
 20
0.0
 30
0.0
 70
   128
 71
    -1
 72
     3
 73
     2
  0
SEQEND
  5
3021
  8
0
  0
POLYLINE
  5
2D92
  8
0
 66
     1
 10
0.0
 20
0.0
 30
0.0
 70
    64
 71
     4
 72
     2
  0
VERTEX
  5
2D93
  8
0
 10
-20.50000000000011
 20
723.0000000000001
 30
32.00000000000023
 70
   192
  0
VERTEX
  5
2D94
  8
0
 10
-20.5000000000001
 20
723.0000000000001
 30
47.00000000000023
 70
   192
  0
VERTEX
  5
2D95
  8
0
 10
20.49999999999983
 20
723.0000000000001
 30
47.00000000000023
 70
   192
  0
VERTEX
  5
2D96
  8
0
 10
20.49999999999982
 20
723.0000000000001
 30
32.00000000000023
 70
   192
  0
VERTEX
  5
2D97
  8
0
 10
0.0
 20
0.0
 30
0.0
 70
   128
 71
     3
 72
     4
 73
    -1
  0
VERTEX
  5
2D98
  8
0
 10
0.0
 20
0.0
 30
0.0
 70
   128
 71
     2
 72
    -3
 73
     1
  0
SEQEND
  5
3022
  8
0
  0
POLYLINE
  5
2D99
  8
0
 66
     1
 10
0.0
 20
0.0
 30
0.0
 70
    64
 71
     4
 72
     2
  0
VERTEX
  5
2D9A
  8
0
 10
-20.5000000000001
 20
702.0000000000001
 30
47.00000000000023
 70
   192
  0
VERTEX
  5
2D9B
  8
0
 10
20.49999999999982
 20
702.0000000000001
 30
47.00000000000023
 70
   192
  0
VERTEX
  5
2D9C
  8
0
 10
20.49999999999982
 20
702.0000000000001
 30
32.00000000000023
 70
   192
  0
VERTEX
  5
2D9D
  8
0
 10
-20.50000000000011
 20
702.0000000000001
 30
32.00000000000023
 70
   192
  0
VERTEX
  5
2D9E
  8
0
 10
0.0
 20
0.0
 30
0.0
 70
   128
 71
     1
 72
     4
 73
    -3
  0
VERTEX
  5
2D9F
  8
0
 10
0.0
 20
0.0
 30
0.0
 70
   128
 71
    -1
 72
     3
 73
     2
  0
SEQEND
  5
3023
  8
0
  0
ENDBLK
  5
301D
  8
0
  0
BLOCK
  8
0
  2
*X24
 70
     1
 10
0.0
 20
0.0
 30
0.0
  3
*X24
  1

  0
POLYLINE
  5
2DA1
  8
0
 66
     1
 10
0.0
 20
0.0
 30
0.0
 70
    64
 71
    10
 72
     8
  0
VERTEX
  5
2DA2
  8
0
 10
-31.2500000000001
 20
700.0000000000001
 30
41.00000000000023
 70
   192
  0
VERTEX
  5
2DA3
  8
0
 10
-31.2500000000001
 20
700.0000000000001
 30
46.00000000000023
 70
   192
  0
VERTEX
  5
2DA4
  8
0
 10
-31.2500000000001
 20
703.0000000000001
 30
46.00000000000023
 70
   192
  0
VERTEX
  5
2DA5
  8
0
 10
-31.2500000000001
 20
703.0000000000001
 30
41.00000000000023
 70
   192
  0
VERTEX
  5
2DA6
  8
0
 10
-33.7500000000001
 20
703.0000000000001
 30
43.50000000000023
 70
   192
  0
VERTEX
  5
2DA7
  8
0
 10
-33.7500000000001
 20
700.0000000000001
 30
43.50000000000023
 70
   192
  0
VERTEX
  5
2DA8
  8
0
 10
-33.01776695296647
 20
703.0000000000001
 30
41.73223304703387
 70
   192
  0
VERTEX
  5
2DA9
  8
0
 10
-33.01776695296647
 20
700.0000000000001
 30
41.73223304703387
 70
   192
  0
VERTEX
  5
2DAA
  8
0
 10
-33.01776695296647
 20
703.0000000000001
 30
45.2677669529666
 70
   192
  0
VERTEX
  5
2DAB
  8
0
 10
-33.01776695296647
 20
700.0000000000001
 30
45.2677669529666
 70
   192
  0
VERTEX
  5
2DAC
  8
0
 10
0.0
 20
0.0
 30
0.0
 70
   128
 71
     8
 72
     1
 73
    -4
  0
VERTEX
  5
2DAD
  8
0
 10
0.0
 20
0.0
 30
0.0
 70
   128
 71
     7
 72
    -8
 73
     4
  0
VERTEX
  5
2DAE
  8
0
 10
0.0
 20
0.0
 30
0.0
 70
   128
 71
     6
 72
     8
 73
    -7
  0
VERTEX
  5
2DAF
  8
0
 10
0.0
 20
0.0
 30
0.0
 70
   128
 71
     5
 72
    -6
 73
     7
  0
VERTEX
  5
2DB0
  8
0
 10
0.0
 20
0.0
 30
0.0
 70
   128
 71
    10
 72
     6
 73
    -5
  0
VERTEX
  5
2DB1
  8
0
 10
0.0
 20
0.0
 30
0.0
 70
   128
 71
     9
 72
   -10
 73
     5
  0
VERTEX
  5
2DB2
  8
0
 10
0.0
 20
0.0
 30
0.0
 70
   128
 71
     2
 72
    10
 73
    -9
  0
VERTEX
  5
2DB3
  8
0
 10
0.0
 20
0.0
 30
0.0
 70
   128
 71
     3
 72
    -2
 73
     9
  0
SEQEND
  5
3026
  8
0
  0
POLYLINE
  5
2DB4
  8
0
 66
     1
 10
0.0
 20
0.0
 30
0.0
 70
    64
 71
    10
 72
     8
  0
VERTEX
  5
2DB5
  8
0
 10
31.24999999999988
 20
700.0000000000001
 30
41.00000000000026
 70
   192
  0
VERTEX
  5
2DB6
  8
0
 10
31.24999999999988
 20
700.0000000000001
 30
46.00000000000026
 70
   192
  0
VERTEX
  5
2DB7
  8
0
 10
31.24999999999988
 20
703.0000000000001
 30
46.00000000000026
 70
   192
  0
VERTEX
  5
2DB8
  8
0
 10
31.24999999999988
 20
703.0000000000001
 30
41.00000000000026
 70
   192
  0
VERTEX
  5
2DB9
  8
0
 10
28.74999999999988
 20
703.0000000000001
 30
43.50000000000026
 70
   192
  0
VERTEX
  5
2DBA
  8
0
 10
28.74999999999988
 20
700.0000000000001
 30
43.50000000000026
 70
   192
  0
VERTEX
  5
2DBB
  8
0
 10
29.48223304703351
 20
703.0000000000001
 30
41.73223304703389
 70
   192
  0
VERTEX
  5
2DBC
  8
0
 10
29.48223304703351
 20
700.0000000000001
 30
41.73223304703389
 70
   192
  0
VERTEX
  5
2DBD
  8
0
 10
29.48223304703351
 20
703.0000000000001
 30
45.26776695296662
 70
   192
  0
VERTEX
  5
2DBE
  8
0
 10
29.48223304703351
 20
700.0000000000001
 30
45.26776695296662
 70
   192
  0
VERTEX
  5
2DBF
  8
0
 10
0.0
 20
0.0
 30
0.0
 70
   128
 71
     8
 72
     1
 73
    -4
  0
VERTEX
  5
2DC0
  8
0
 10
0.0
 20
0.0
 30
0.0
 70
   128
 71
     7
 72
    -8
 73
     4
  0
VERTEX
  5
2DC1
  8
0
 10
0.0
 20
0.0
 30
0.0
 70
   128
 71
     6
 72
     8
 73
    -7
  0
VERTEX
  5
2DC2
  8
0
 10
0.0
 20
0.0
 30
0.0
 70
   128
 71
     5
 72
    -6
 73
     7
  0
VERTEX
  5
2DC3
  8
0
 10
0.0
 20
0.0
 30
0.0
 70
   128
 71
    10
 72
     6
 73
    -5
  0
VERTEX
  5
2DC4
  8
0
 10
0.0
 20
0.0
 30
0.0
 70
   128
 71
     9
 72
   -10
 73
     5
  0
VERTEX
  5
2DC5
  8
0
 10
0.0
 20
0.0
 30
0.0
 70
   128
 71
     2
 72
    10
 73
    -9
  0
VERTEX
  5
2DC6
  8
0
 10
0.0
 20
0.0
 30
0.0
 70
   128
 71
     3
 72
    -2
 73
     9
  0
SEQEND
  5
3027
  8
0
  0
POLYLINE
  5
2DC7
  8
0
 66
     1
 10
0.0
 20
0.0
 30
0.0
 70
    64
 71
    12
 72
    12
  0
VERTEX
  5
2DC8
  8
0
 10
-22.50000000000011
 20
703.0000000000001
 30
53.00000000000024
 70
   192
  0
VERTEX
  5
2DC9
  8
0
 10
-22.50000000000011
 20
703.0000000000001
 30
34.00000000000024
 70
   192
  0
VERTEX
  5
2DCA
  8
0
 10
-40.00000000000011
 20
703.0000000000001
 30
34.00000000000024
 70
   192
  0
VERTEX
  5
2DCB
  8
0
 10
-40.00000000000011
 20
703.0000000000001
 30
53.00000000000024
 70
   192
  0
VERTEX
  5
2DCC
  8
0
 10
-31.2500000000001
 20
703.0000000000001
 30
41.00000000000023
 70
   192
  0
VERTEX
  5
2DCD
  8
0
 10
-29.48223304703373
 20
703.0000000000001
 30
41.73223304703387
 70
   192
  0
VERTEX
  5
2DCE
  8
0
 10
-28.7500000000001
 20
703.0000000000001
 30
43.50000000000023
 70
   192
  0
VERTEX
  5
2DCF
  8
0
 10
-29.48223304703373
 20
703.0000000000001
 30
45.2677669529666
 70
   192
  0
VERTEX
  5
2DD0
  8
0
 10
-31.2500000000001
 20
703.0000000000001
 30
46.00000000000023
 70
   192
  0
VERTEX
  5
2DD1
  8
0
 10
-33.01776695296647
 20
703.0000000000001
 30
45.2677669529666
 70
   192
  0
VERTEX
  5
2DD2
  8
0
 10
-33.7500000000001
 20
703.0000000000001
 30
43.50000000000023
 70
   192
  0
VERTEX
  5
2DD3
  8
0
 10
-33.01776695296647
 20
703.0000000000001
 30
41.73223304703387
 70
   192
  0
VERTEX
  5
2DD4
  8
0
 10
0.0
 20
0.0
 30
0.0
 70
   128
 71
    -2
 72
     5
 73
    -6
  0
VERTEX
  5
2DD5
  8
0
 10
0.0
 20
0.0
 30
0.0
 70
   128
 71
     6
 72
    -7
 73
    -2
  0
VERTEX
  5
2DD6
  8
0
 10
0.0
 20
0.0
 30
0.0
 70
   128
 71
    -8
 72
     1
 73
    -2
  0
VERTEX
  5
2DD7
  8
0
 10
0.0
 20
0.0
 30
0.0
 70
   128
 71
     7
 72
    -8
 73
    -2
  0
VERTEX
  5
2DD8
  8
0
 10
0.0
 20
0.0
 30
0.0
 70
   128
 71
     8
 72
    -9
 73
    -1
  0
VERTEX
  5
2DD9
  8
0
 10
0.0
 20
0.0
 30
0.0
 70
   128
 71
   -10
 72
     4
 73
    -1
  0
VERTEX
  5
2DDA
  8
0
 10
0.0
 20
0.0
 30
0.0
 70
   128
 71
     9
 72
   -10
 73
    -1
  0
VERTEX
  5
2DDB
  8
0
 10
0.0
 20
0.0
 30
0.0
 70
   128
 71
   -11
 72
     3
 73
    -4
  0
VERTEX
  5
2DDC
  8
0
 10
0.0
 20
0.0
 30
0.0
 70
   128
 71
    10
 72
   -11
 73
    -4
  0
VERTEX
  5
2DDD
  8
0
 10
0.0
 20
0.0
 30
0.0
 70
   128
 71
    11
 72
   -12
 73
    -3
  0
VERTEX
  5
2DDE
  8
0
 10
0.0
 20
0.0
 30
0.0
 70
   128
 71
    -5
 72
     2
 73
    -3
  0
VERTEX
  5
2DDF
  8
0
 10
0.0
 20
0.0
 30
0.0
 70
   128
 71
    12
 72
    -5
 73
    -3
  0
SEQEND
  5
3028
  8
0
  0
POLYLINE
  5
2DE0
  8
0
 66
     1
 10
0.0
 20
0.0
 30
0.0
 70
    64
 71
     4
 72
     2
  0
VERTEX
  5
2DE1
  8
0
 10
-40.00000000000011
 20
700.0000000000001
 30
34.00000000000024
 70
   192
  0
VERTEX
  5
2DE2
  8
0
 10
-40.00000000000011
 20
703.0000000000001
 30
34.00000000000024
 70
   192
  0
VERTEX
  5
2DE3
  8
0
 10
-40.00000000000011
 20
703.0000000000001
 30
53.00000000000024
 70
   192
  0
VERTEX
  5
2DE4
  8
0
 10
-40.00000000000011
 20
700.0000000000001
 30
53.00000000000024
 70
   192
  0
VERTEX
  5
2DE5
  8
0
 10
0.0
 20
0.0
 30
0.0
 70
   128
 71
     1
 72
     4
 73
    -3
  0
VERTEX
  5
2DE6
  8
0
 10
0.0
 20
0.0
 30
0.0
 70
   128
 71
    -1
 72
     3
 73
     2
  0
SEQEND
  5
3029
  8
0
  0
POLYLINE
  5
2DE7
  8
0
 66
     1
 10
0.0
 20
0.0
 30
0.0
 70
    64
 71
     8
 72
     6
  0
VERTEX
  5
2DE8
  8
0
 10
-40.00000000000011
 20
700.0000000000001
 30
53.00000000000024
 70
   192
  0
VERTEX
  5
2DE9
  8
0
 10
-40.00000000000011
 20
703.0000000000001
 30
53.00000000000024
 70
   192
  0
VERTEX
  5
2DEA
  8
0
 10
-22.50000000000011
 20
703.0000000000001
 30
53.00000000000024
 70
   192
  0
VERTEX
  5
2DEB
  8
0
 10
-22.50000000000011
 20
724.0000000000001
 30
53.00000000000024
 70
   192
  0
VERTEX
  5
2DEC
  8
0
 10
22.49999999999988
 20
724.0000000000001
 30
53.00000000000024
 70
   192
  0
VERTEX
  5
2DED
  8
0
 10
22.49999999999988
 20
703.0000000000001
 30
53.00000000000023
 70
   192
  0
VERTEX
  5
2DEE
  8
0
 10
39.99999999999989
 20
703.0000000000001
 30
53.00000000000023
 70
   192
  0
VERTEX
  5
2DEF
  8
0
 10
39.99999999999989
 20
700.0000000000001
 30
53.00000000000023
 70
   192
  0
VERTEX
  5
2DF0
  8
0
 10
0.0
 20
0.0
 30
0.0
 70
   128
 71
     3
 72
     2
 73
    -1
  0
VERTEX
  5
2DF1
  8
0
 10
0.0
 20
0.0
 30
0.0
 70
   128
 71
    -3
 72
    -1
 73
    -6
  0
VERTEX
  5
2DF2
  8
0
 10
0.0
 20
0.0
 30
0.0
 70
   128
 71
     6
 72
     5
 73
    -4
  0
VERTEX
  5
2DF3
  8
0
 10
0.0
 20
0.0
 30
0.0
 70
   128
 71
    -6
 72
     4
 73
    -3
  0
VERTEX
  5
2DF4
  8
0
 10
0.0
 20
0.0
 30
0.0
 70
   128
 71
     1
 72
    -8
 73
    -6
  0
VERTEX
  5
2DF5
  8
0
 10
0.0
 20
0.0
 30
0.0
 70
   128
 71
     8
 72
     7
 73
    -6
  0
SEQEND
  5
302A
  8
0
  0
POLYLINE
  5
2DF6
  8
0
 66
     1
 10
0.0
 20
0.0
 30
0.0
 70
    64
 71
     4
 72
     2
  0
VERTEX
  5
2DF7
  8
0
 10
39.99999999999989
 20
700.0000000000001
 30
53.00000000000023
 70
   192
  0
VERTEX
  5
2DF8
  8
0
 10
39.99999999999989
 20
703.0000000000001
 30
53.00000000000023
 70
   192
  0
VERTEX
  5
2DF9
  8
0
 10
39.99999999999989
 20
703.0000000000001
 30
34.00000000000023
 70
   192
  0
VERTEX
  5
2DFA
  8
0
 10
39.99999999999989
 20
700.0000000000001
 30
34.00000000000023
 70
   192
  0
VERTEX
  5
2DFB
  8
0
 10
0.0
 20
0.0
 30
0.0
 70
   128
 71
     1
 72
     4
 73
    -3
  0
VERTEX
  5
2DFC
  8
0
 10
0.0
 20
0.0
 30
0.0
 70
   128
 71
    -1
 72
     3
 73
     2
  0
SEQEND
  5
302B
  8
0
  0
POLYLINE
  5
2DFD
  8
0
 66
     1
 10
0.0
 20
0.0
 30
0.0
 70
    64
 71
     4
 72
     2
  0
VERTEX
  5
2DFE
  8
0
 10
39.99999999999989
 20
700.0000000000001
 30
34.00000000000023
 70
   192
  0
VERTEX
  5
2DFF
  8
0
 10
39.99999999999989
 20
703.0000000000001
 30
34.00000000000023
 70
   192
  0
VERTEX
  5
2E00
  8
0
 10
22.49999999999988
 20
703.0000000000001
 30
34.00000000000024
 70
   192
  0
VERTEX
  5
2E01
  8
0
 10
22.49999999999988
 20
700.0000000000001
 30
34.00000000000023
 70
   192
  0
VERTEX
  5
2E02
  8
0
 10
0.0
 20
0.0
 30
0.0
 70
   128
 71
     1
 72
     4
 73
    -3
  0
VERTEX
  5
2E03
  8
0
 10
0.0
 20
0.0
 30
0.0
 70
   128
 71
    -1
 72
     3
 73
     2
  0
SEQEND
  5
302C
  8
0
  0
POLYLINE
  5
2E04
  8
0
 66
     1
 10
0.0
 20
0.0
 30
0.0
 70
    64
 71
     6
 72
     4
  0
VERTEX
  5
2E05
  8
0
 10
22.49999999999988
 20
700.0000000000001
 30
34.00000000000024
 70
   192
  0
VERTEX
  5
2E06
  8
0
 10
22.49999999999988
 20
703.0000000000001
 30
34.00000000000024
 70
   192
  0
VERTEX
  5
2E07
  8
0
 10
22.49999999999988
 20
703.0000000000001
 30
53.00000000000024
 70
   192
  0
VERTEX
  5
2E08
  8
0
 10
22.49999999999988
 20
724.0000000000001
 30
53.00000000000024
 70
   192
  0
VERTEX
  5
2E09
  8
0
 10
22.49999999999989
 20
724.0000000000001
 30
32.00000000000023
 70
   192
  0
VERTEX
  5
2E0A
  8
0
 10
22.49999999999989
 20
700.0000000000001
 30
32.00000000000023
 70
   192
  0
VERTEX
  5
2E0B
  8
0
 10
0.0
 20
0.0
 30
0.0
 70
   128
 71
     2
 72
     1
 73
    -6
  0
VERTEX
  5
2E0C
  8
0
 10
0.0
 20
0.0
 30
0.0
 70
   128
 71
    -2
 72
     6
 73
    -5
  0
VERTEX
  5
2E0D
  8
0
 10
0.0
 20
0.0
 30
0.0
 70
   128
 71
     5
 72
     4
 73
    -3
  0
VERTEX
  5
2E0E
  8
0
 10
0.0
 20
0.0
 30
0.0
 70
   128
 71
    -5
 72
     3
 73
    -2
  0
SEQEND
  5
302D
  8
0
  0
POLYLINE
  5
2E0F
  8
0
 66
     1
 10
0.0
 20
0.0
 30
0.0
 70
    64
 71
     8
 72
     6
  0
VERTEX
  5
2E10
  8
0
 10
-22.50000000000011
 20
724.0000000000001
 30
32.00000000000023
 70
   192
  0
VERTEX
  5
2E11
  8
0
 10
-22.50000000000011
 20
700.0000000000001
 30
32.00000000000023
 70
   192
  0
VERTEX
  5
2E12
  8
0
 10
22.49999999999989
 20
700.0000000000001
 30
32.00000000000023
 70
   192
  0
VERTEX
  5
2E13
  8
0
 10
22.49999999999988
 20
724.0000000000001
 30
32.00000000000023
 70
   192
  0
VERTEX
  5
2E14
  8
0
 10
20.49999999999989
 20
724.0000000000001
 30
32.00000000000023
 70
   192
  0
VERTEX
  5
2E15
  8
0
 10
20.49999999999989
 20
702.0000000000001
 30
32.00000000000023
 70
   192
  0
VERTEX
  5
2E16
  8
0
 10
-20.50000000000011
 20
702.0000000000001
 30
32.00000000000023
 70
   192
  0
VERTEX
  5
2E17
  8
0
 10
-20.50000000000011
 20
724.0000000000001
 30
32.00000000000023
 70
   192
  0
VERTEX
  5
2E18
  8
0
 10
0.0
 20
0.0
 30
0.0
 70
   128
 71
     6
 72
     5
 73
    -4
  0
VERTEX
  5
2E19
  8
0
 10
0.0
 20
0.0
 30
0.0
 70
   128
 71
    -6
 72
     4
 73
    -3
  0
VERTEX
  5
2E1A
  8
0
 10
0.0
 20
0.0
 30
0.0
 70
   128
 71
     3
 72
    -2
 73
    -7
  0
VERTEX
  5
2E1B
  8
0
 10
0.0
 20
0.0
 30
0.0
 70
   128
 71
    -3
 72
     7
 73
    -6
  0
VERTEX
  5
2E1C
  8
0
 10
0.0
 20
0.0
 30
0.0
 70
   128
 71
     2
 72
     1
 73
    -8
  0
VERTEX
  5
2E1D
  8
0
 10
0.0
 20
0.0
 30
0.0
 70
   128
 71
    -2
 72
     8
 73
    -7
  0
SEQEND
  5
302E
  8
0
  0
POLYLINE
  5
2E1E
  8
0
 66
     1
 10
0.0
 20
0.0
 30
0.0
 70
    64
 71
     6
 72
     4
  0
VERTEX
  5
2E1F
  8
0
 10
-22.50000000000011
 20
700.0000000000001
 30
32.00000000000023
 70
   192
  0
VERTEX
  5
2E20
  8
0
 10
-22.50000000000011
 20
724.0000000000001
 30
32.00000000000023
 70
   192
  0
VERTEX
  5
2E21
  8
0
 10
-22.50000000000011
 20
724.0000000000001
 30
53.00000000000024
 70
   192
  0
VERTEX
  5
2E22
  8
0
 10
-22.50000000000011
 20
703.0000000000001
 30
53.00000000000024
 70
   192
  0
VERTEX
  5
2E23
  8
0
 10
-22.50000000000012
 20
703.0000000000001
 30
34.00000000000024
 70
   192
  0
VERTEX
  5
2E24
  8
0
 10
-22.50000000000012
 20
700.0000000000001
 30
34.00000000000024
 70
   192
  0
VERTEX
  5
2E25
  8
0
 10
0.0
 20
0.0
 30
0.0
 70
   128
 71
     5
 72
     4
 73
    -3
  0
VERTEX
  5
2E26
  8
0
 10
0.0
 20
0.0
 30
0.0
 70
   128
 71
    -5
 72
     3
 73
    -2
  0
VERTEX
  5
2E27
  8
0
 10
0.0
 20
0.0
 30
0.0
 70
   128
 71
     2
 72
    -1
 73
    -5
  0
VERTEX
  5
2E28
  8
0
 10
0.0
 20
0.0
 30
0.0
 70
   128
 71
     1
 72
     6
 73
    -5
  0
SEQEND
  5
302F
  8
0
  0
POLYLINE
  5
2E29
  8
0
 66
     1
 10
0.0
 20
0.0
 30
0.0
 70
    64
 71
     4
 72
     2
  0
VERTEX
  5
2E2A
  8
0
 10
-22.50000000000012
 20
700.0000000000001
 30
34.00000000000024
 70
   192
  0
VERTEX
  5
2E2B
  8
0
 10
-22.50000000000012
 20
703.0000000000001
 30
34.00000000000024
 70
   192
  0
VERTEX
  5
2E2C
  8
0
 10
-40.00000000000011
 20
703.0000000000001
 30
34.00000000000024
 70
   192
  0
VERTEX
  5
2E2D
  8
0
 10
-40.00000000000011
 20
700.0000000000001
 30
34.00000000000024
 70
   192
  0
VERTEX
  5
2E2E
  8
0
 10
0.0
 20
0.0
 30
0.0
 70
   128
 71
     1
 72
     4
 73
    -3
  0
VERTEX
  5
2E2F
  8
0
 10
0.0
 20
0.0
 30
0.0
 70
   128
 71
    -1
 72
     3
 73
     2
  0
SEQEND
  5
3030
  8
0
  0
POLYLINE
  5
2E30
  8
0
 66
     1
 10
0.0
 20
0.0
 30
0.0
 70
    64
 71
    12
 72
    12
  0
VERTEX
  5
2E31
  8
0
 10
22.49999999999988
 20
703.0000000000001
 30
34.00000000000024
 70
   192
  0
VERTEX
  5
2E32
  8
0
 10
22.49999999999988
 20
703.0000000000001
 30
53.00000000000023
 70
   192
  0
VERTEX
  5
2E33
  8
0
 10
39.99999999999989
 20
703.0000000000001
 30
53.00000000000023
 70
   192
  0
VERTEX
  5
2E34
  8
0
 10
39.99999999999989
 20
703.0000000000001
 30
34.00000000000023
 70
   192
  0
VERTEX
  5
2E35
  8
0
 10
31.24999999999988
 20
703.0000000000001
 30
41.00000000000026
 70
   192
  0
VERTEX
  5
2E36
  8
0
 10
33.01776695296624
 20
703.0000000000001
 30
41.73223304703389
 70
   192
  0
VERTEX
  5
2E37
  8
0
 10
33.74999999999987
 20
703.0000000000001
 30
43.50000000000026
 70
   192
  0
VERTEX
  5
2E38
  8
0
 10
33.01776695296624
 20
703.0000000000001
 30
45.26776695296662
 70
   192
  0
VERTEX
  5
2E39
  8
0
 10
31.24999999999988
 20
703.0000000000001
 30
46.00000000000026
 70
   192
  0
VERTEX
  5
2E3A
  8
0
 10
29.48223304703351
 20
703.0000000000001
 30
45.26776695296662
 70
   192
  0
VERTEX
  5
2E3B
  8
0
 10
28.74999999999988
 20
703.0000000000001
 30
43.50000000000026
 70
   192
  0
VERTEX
  5
2E3C
  8
0
 10
29.48223304703351
 20
703.0000000000001
 30
41.73223304703389
 70
   192
  0
VERTEX
  5
2E3D
  8
0
 10
0.0
 20
0.0
 30
0.0
 70
   128
 71
    -1
 72
     5
 73
    -6
  0
VERTEX
  5
2E3E
  8
0
 10
0.0
 20
0.0
 30
0.0
 70
   128
 71
     4
 72
    -1
 73
    -6
  0
VERTEX
  5
2E3F
  8
0
 10
0.0
 20
0.0
 30
0.0
 70
   128
 71
    -7
 72
     3
 73
    -4
  0
VERTEX
  5
2E40
  8
0
 10
0.0
 20
0.0
 30
0.0
 70
   128
 71
     6
 72
    -7
 73
    -4
  0
VERTEX
  5
2E41
  8
0
 10
0.0
 20
0.0
 30
0.0
 70
   128
 71
     7
 72
    -8
 73
    -3
  0
VERTEX
  5
2E42
  8
0
 10
0.0
 20
0.0
 30
0.0
 70
   128
 71
    -9
 72
     2
 73
    -3
  0
VERTEX
  5
2E43
  8
0
 10
0.0
 20
0.0
 30
0.0
 70
   128
 71
     8
 72
    -9
 73
    -3
  0
VERTEX
  5
2E44
  8
0
 10
0.0
 20
0.0
 30
0.0
 70
   128
 71
     9
 72
   -10
 73
    -2
  0
VERTEX
  5
2E45
  8
0
 10
0.0
 20
0.0
 30
0.0
 70
   128
 71
    10
 72
   -11
 73
    -2
  0
VERTEX
  5
2E46
  8
0
 10
0.0
 20
0.0
 30
0.0
 70
   128
 71
   -12
 72
     1
 73
    -2
  0
VERTEX
  5
2E47
  8
0
 10
0.0
 20
0.0
 30
0.0
 70
   128
 71
    11
 72
   -12
 73
    -2
  0
VERTEX
  5
2E48
  8
0
 10
0.0
 20
0.0
 30
0.0
 70
   128
 71
    12
 72
    -5
 73
    -1
  0
SEQEND
  5
3031
  8
0
  0
POLYLINE
  5
2E49
  8
0
 66
     1
 10
0.0
 20
0.0
 30
0.0
 70
    64
 71
    24
 72
    26
  0
VERTEX
  5
2E4A
  8
0
 10
-40.00000000000011
 20
700.0000000000001
 30
53.00000000000024
 70
   192
  0
VERTEX
  5
2E4B
  8
0
 10
39.99999999999989
 20
700.0000000000001
 30
53.00000000000023
 70
   192
  0
VERTEX
  5
2E4C
  8
0
 10
39.99999999999989
 20
700.0000000000001
 30
34.00000000000023
 70
   192
  0
VERTEX
  5
2E4D
  8
0
 10
22.49999999999988
 20
700.0000000000001
 30
34.00000000000024
 70
   192
  0
VERTEX
  5
2E4E
  8
0
 10
22.49999999999989
 20
700.0000000000001
 30
32.00000000000023
 70
   192
  0
VERTEX
  5
2E4F
  8
0
 10
-22.50000000000011
 20
700.0000000000001
 30
32.00000000000023
 70
   192
  0
VERTEX
  5
2E50
  8
0
 10
-22.50000000000012
 20
700.0000000000001
 30
34.00000000000024
 70
   192
  0
VERTEX
  5
2E51
  8
0
 10
-40.00000000000011
 20
700.0000000000001
 30
34.00000000000024
 70
   192
  0
VERTEX
  5
2E52
  8
0
 10
31.24999999999988
 20
700.0000000000001
 30
41.00000000000026
 70
   192
  0
VERTEX
  5
2E53
  8
0
 10
33.01776695296624
 20
700.0000000000001
 30
41.73223304703389
 70
   192
  0
VERTEX
  5
2E54
  8
0
 10
33.74999999999987
 20
700.0000000000001
 30
43.50000000000026
 70
   192
  0
VERTEX
  5
2E55
  8
0
 10
33.01776695296624
 20
700.0000000000001
 30
45.26776695296662
 70
   192
  0
VERTEX
  5
2E56
  8
0
 10
31.24999999999988
 20
700.0000000000001
 30
46.00000000000026
 70
   192
  0
VERTEX
  5
2E57
  8
0
 10
29.48223304703351
 20
700.0000000000001
 30
45.26776695296662
 70
   192
  0
VERTEX
  5
2E58
  8
0
 10
28.74999999999988
 20
700.0000000000001
 30
43.50000000000026
 70
   192
  0
VERTEX
  5
2E59
  8
0
 10
29.48223304703351
 20
700.0000000000001
 30
41.73223304703389
 70
   192
  0
VERTEX
  5
2E5A
  8
0
 10
-31.2500000000001
 20
700.0000000000001
 30
41.00000000000023
 70
   192
  0
VERTEX
  5
2E5B
  8
0
 10
-29.48223304703373
 20
700.0000000000001
 30
41.73223304703387
 70
   192
  0
VERTEX
  5
2E5C
  8
0
 10
-28.75000000000011
 20
700.0000000000001
 30
43.50000000000023
 70
   192
  0
VERTEX
  5
2E5D
  8
0
 10
-29.48223304703373
 20
700.0000000000001
 30
45.2677669529666
 70
   192
  0
VERTEX
  5
2E5E
  8
0
 10
-31.2500000000001
 20
700.0000000000001
 30
46.00000000000023
 70
   192
  0
VERTEX
  5
2E5F
  8
0
 10
-33.01776695296647
 20
700.0000000000001
 30
45.2677669529666
 70
   192
  0
VERTEX
  5
2E60
  8
0
 10
-33.7500000000001
 20
700.0000000000001
 30
43.50000000000023
 70
   192
  0
VERTEX
  5
2E61
  8
0
 10
-33.01776695296647
 20
700.0000000000001
 30
41.73223304703387
 70
   192
  0
VERTEX
  5
2E62
  8
0
 10
0.0
 20
0.0
 30
0.0
 70
   128
 71
     7
 72
     6
 73
    -5
  0
VERTEX
  5
2E63
  8
0
 10
0.0
 20
0.0
 30
0.0
 70
   128
 71
    10
 72
    -9
 73
    -4
  0
VERTEX
  5
2E64
  8
0
 10
0.0
 20
0.0
 30
0.0
 70
   128
 71
   -10
 72
     4
 73
    -3
  0
VERTEX
  5
2E65
  8
0
 10
0.0
 20
0.0
 30
0.0
 70
   128
 71
     3
 72
    -2
 73
   -11
  0
VERTEX
  5
2E66
  8
0
 10
0.0
 20
0.0
 30
0.0
 70
   128
 71
    -3
 72
    11
 73
   -10
  0
VERTEX
  5
2E67
  8
0
 10
0.0
 20
0.0
 30
0.0
 70
   128
 71
    -2
 72
    12
 73
   -11
  0
VERTEX
  5
2E68
  8
0
 10
0.0
 20
0.0
 30
0.0
 70
   128
 71
    -2
 72
    13
 73
   -12
  0
VERTEX
  5
2E69
  8
0
 10
0.0
 20
0.0
 30
0.0
 70
   128
 71
    -2
 72
    14
 73
   -13
  0
VERTEX
  5
2E6A
  8
0
 10
0.0
 20
0.0
 30
0.0
 70
   128
 71
    20
 72
   -19
 73
   -15
  0
VERTEX
  5
2E6B
  8
0
 10
0.0
 20
0.0
 30
0.0
 70
   128
 71
   -14
 72
     2
 73
    -1
  0
VERTEX
  5
2E6C
  8
0
 10
0.0
 20
0.0
 30
0.0
 70
   128
 71
   -14
 72
    -1
 73
   -20
  0
VERTEX
  5
2E6D
  8
0
 10
0.0
 20
0.0
 30
0.0
 70
   128
 71
   -20
 72
    15
 73
   -14
  0
VERTEX
  5
2E6E
  8
0
 10
0.0
 20
0.0
 30
0.0
 70
   128
 71
    -1
 72
    21
 73
   -20
  0
VERTEX
  5
2E6F
  8
0
 10
0.0
 20
0.0
 30
0.0
 70
   128
 71
    -1
 72
    22
 73
   -21
  0
VERTEX
  5
2E70
  8
0
 10
0.0
 20
0.0
 30
0.0
 70
   128
 71
     1
 72
    -8
 73
   -23
  0
VERTEX
  5
2E71
  8
0
 10
0.0
 20
0.0
 30
0.0
 70
   128
 71
    -1
 72
    23
 73
   -22
  0
VERTEX
  5
2E72
  8
0
 10
0.0
 20
0.0
 30
0.0
 70
   128
 71
    -8
 72
    24
 73
   -23
  0
VERTEX
  5
2E73
  8
0
 10
0.0
 20
0.0
 30
0.0
 70
   128
 71
     8
 72
    -7
 73
   -17
  0
VERTEX
  5
2E74
  8
0
 10
0.0
 20
0.0
 30
0.0
 70
   128
 71
    -8
 72
    17
 73
   -24
  0
VERTEX
  5
2E75
  8
0
 10
0.0
 20
0.0
 30
0.0
 70
   128
 71
    18
 72
   -17
 73
    -7
  0
VERTEX
  5
2E76
  8
0
 10
0.0
 20
0.0
 30
0.0
 70
   128
 71
    -7
 72
    -4
 73
   -16
  0
VERTEX
  5
2E77
  8
0
 10
0.0
 20
0.0
 30
0.0
 70
   128
 71
    -7
 72
    16
 73
   -15
  0
VERTEX
  5
2E78
  8
0
 10
0.0
 20
0.0
 30
0.0
 70
   128
 71
    -7
 72
   -15
 73
   -19
  0
VERTEX
  5
2E79
  8
0
 10
0.0
 20
0.0
 30
0.0
 70
   128
 71
    -7
 72
    19
 73
   -18
  0
VERTEX
  5
2E7A
  8
0
 10
0.0
 20
0.0
 30
0.0
 70
   128
 71
    -4
 72
     9
 73
   -16
  0
VERTEX
  5
2E7B
  8
0
 10
0.0
 20
0.0
 30
0.0
 70
   128
 71
    -7
 72
     5
 73
    -4
  0
SEQEND
  5
3032
  8
0
  0
POLYLINE
  5
2E7C
  8
0
 66
     1
 10
0.0
 20
0.0
 30
0.0
 70
    64
 71
     8
 72
     6
  0
VERTEX
  5
2E7D
  8
0
 10
-20.50000000000017
 20
724.0000000000001
 30
51.00000000000024
 70
   192
  0
VERTEX
  5
2E7E
  8
0
 10
-20.50000000000011
 20
724.0000000000001
 30
32.00000000000023
 70
   192
  0
VERTEX
  5
2E7F
  8
0
 10
-22.50000000000011
 20
724.0000000000001
 30
32.00000000000023
 70
   192
  0
VERTEX
  5
2E80
  8
0
 10
-22.50000000000011
 20
724.0000000000001
 30
53.00000000000024
 70
   192
  0
VERTEX
  5
2E81
  8
0
 10
22.49999999999988
 20
724.0000000000001
 30
53.00000000000024
 70
   192
  0
VERTEX
  5
2E82
  8
0
 10
22.49999999999988
 20
724.0000000000001
 30
32.00000000000023
 70
   192
  0
VERTEX
  5
2E83
  8
0
 10
20.49999999999989
 20
724.0000000000001
 30
32.00000000000023
 70
   192
  0
VERTEX
  5
2E84
  8
0
 10
20.49999999999982
 20
724.0000000000001
 30
51.00000000000023
 70
   192
  0
VERTEX
  5
2E85
  8
0
 10
0.0
 20
0.0
 30
0.0
 70
   128
 71
     6
 72
     7
 73
    -8
  0
VERTEX
  5
2E86
  8
0
 10
0.0
 20
0.0
 30
0.0
 70
   128
 71
     5
 72
    -6
 73
    -8
  0
VERTEX
  5
2E87
  8
0
 10
0.0
 20
0.0
 30
0.0
 70
   128
 71
    -1
 72
     4
 73
    -5
  0
VERTEX
  5
2E88
  8
0
 10
0.0
 20
0.0
 30
0.0
 70
   128
 71
     8
 72
    -1
 73
    -5
  0
VERTEX
  5
2E89
  8
0
 10
0.0
 20
0.0
 30
0.0
 70
   128
 71
     2
 72
     3
 73
    -4
  0
VERTEX
  5
2E8A
  8
0
 10
0.0
 20
0.0
 30
0.0
 70
   128
 71
     1
 72
    -2
 73
    -4
  0
SEQEND
  5
3033
  8
0
  0
POLYLINE
  5
2E8B
  8
0
 66
     1
 10
0.0
 20
0.0
 30
0.0
 70
    64
 71
     4
 72
     2
  0
VERTEX
  5
2E8C
  8
0
 10
-20.50000000000017
 20
702.0000000000001
 30
51.00000000000024
 70
   192
  0
VERTEX
  5
2E8D
  8
0
 10
-20.50000000000017
 20
724.0000000000001
 30
51.00000000000024
 70
   192
  0
VERTEX
  5
2E8E
  8
0
 10
20.49999999999982
 20
724.0000000000001
 30
51.00000000000023
 70
   192
  0
VERTEX
  5
2E8F
  8
0
 10
20.49999999999982
 20
702.0000000000001
 30
51.00000000000023
 70
   192
  0
VERTEX
  5
2E90
  8
0
 10
0.0
 20
0.0
 30
0.0
 70
   128
 71
     3
 72
     4
 73
    -1
  0
VERTEX
  5
2E91
  8
0
 10
0.0
 20
0.0
 30
0.0
 70
   128
 71
     2
 72
    -3
 73
     1
  0
SEQEND
  5
3034
  8
0
  0
POLYLINE
  5
2E92
  8
0
 66
     1
 10
0.0
 20
0.0
 30
0.0
 70
    64
 71
     4
 72
     2
  0
VERTEX
  5
2E93
  8
0
 10
20.49999999999982
 20
702.0000000000001
 30
51.00000000000023
 70
   192
  0
VERTEX
  5
2E94
  8
0
 10
20.49999999999982
 20
724.0000000000001
 30
51.00000000000023
 70
   192
  0
VERTEX
  5
2E95
  8
0
 10
20.49999999999989
 20
724.0000000000001
 30
32.00000000000023
 70
   192
  0
VERTEX
  5
2E96
  8
0
 10
20.49999999999989
 20
702.0000000000001
 30
32.00000000000023
 70
   192
  0
VERTEX
  5
2E97
  8
0
 10
0.0
 20
0.0
 30
0.0
 70
   128
 71
     3
 72
     4
 73
    -1
  0
VERTEX
  5
2E98
  8
0
 10
0.0
 20
0.0
 30
0.0
 70
   128
 71
     2
 72
    -3
 73
     1
  0
SEQEND
  5
3035
  8
0
  0
POLYLINE
  5
2E99
  8
0
 66
     1
 10
0.0
 20
0.0
 30
0.0
 70
    64
 71
     4
 72
     2
  0
VERTEX
  5
2E9A
  8
0
 10
-20.50000000000017
 20
702.0000000000001
 30
51.00000000000024
 70
   192
  0
VERTEX
  5
2E9B
  8
0
 10
-20.50000000000011
 20
702.0000000000001
 30
32.00000000000023
 70
   192
  0
VERTEX
  5
2E9C
  8
0
 10
-20.50000000000011
 20
724.0000000000001
 30
32.00000000000023
 70
   192
  0
VERTEX
  5
2E9D
  8
0
 10
-20.50000000000017
 20
724.0000000000001
 30
51.00000000000024
 70
   192
  0
VERTEX
  5
2E9E
  8
0
 10
0.0
 20
0.0
 30
0.0
 70
   128
 71
     3
 72
     4
 73
    -1
  0
VERTEX
  5
2E9F
  8
0
 10
0.0
 20
0.0
 30
0.0
 70
   128
 71
     2
 72
    -3
 73
     1
  0
SEQEND
  5
3036
  8
0
  0
POLYLINE
  5
2EA0
  8
0
 66
     1
 10
0.0
 20
0.0
 30
0.0
 70
    64
 71
     4
 72
     2
  0
VERTEX
  5
2EA1
  8
0
 10
-20.50000000000018
 20
702.0000000000001
 30
51.00000000000023
 70
   192
  0
VERTEX
  5
2EA2
  8
0
 10
20.49999999999982
 20
702.0000000000001
 30
51.00000000000023
 70
   192
  0
VERTEX
  5
2EA3
  8
0
 10
20.49999999999989
 20
702.0000000000001
 30
32.00000000000023
 70
   192
  0
VERTEX
  5
2EA4
  8
0
 10
-20.50000000000011
 20
702.0000000000001
 30
32.00000000000023
 70
   192
  0
VERTEX
  5
2EA5
  8
0
 10
0.0
 20
0.0
 30
0.0
 70
   128
 71
     3
 72
     4
 73
    -1
  0
VERTEX
  5
2EA6
  8
0
 10
0.0
 20
0.0
 30
0.0
 70
   128
 71
     2
 72
    -3
 73
     1
  0
SEQEND
  5
3037
  8
0
  0
POLYLINE
  5
2EA7
  8
0
 66
     1
 10
0.0
 20
0.0
 30
0.0
 70
    64
 71
    10
 72
     8
  0
VERTEX
  5
2EA8
  8
0
 10
31.24999999999988
 20
700.0000000000001
 30
46.00000000000026
 70
   192
  0
VERTEX
  5
2EA9
  8
0
 10
31.24999999999988
 20
700.0000000000001
 30
41.00000000000026
 70
   192
  0
VERTEX
  5
2EAA
  8
0
 10
31.24999999999988
 20
703.0000000000001
 30
41.00000000000026
 70
   192
  0
VERTEX
  5
2EAB
  8
0
 10
31.24999999999988
 20
703.0000000000001
 30
46.00000000000026
 70
   192
  0
VERTEX
  5
2EAC
  8
0
 10
33.74999999999987
 20
703.0000000000001
 30
43.50000000000026
 70
   192
  0
VERTEX
  5
2EAD
  8
0
 10
33.74999999999987
 20
700.0000000000001
 30
43.50000000000026
 70
   192
  0
VERTEX
  5
2EAE
  8
0
 10
33.01776695296624
 20
703.0000000000001
 30
45.26776695296662
 70
   192
  0
VERTEX
  5
2EAF
  8
0
 10
33.01776695296624
 20
700.0000000000001
 30
45.26776695296662
 70
   192
  0
VERTEX
  5
2EB0
  8
0
 10
33.01776695296624
 20
703.0000000000001
 30
41.73223304703389
 70
   192
  0
VERTEX
  5
2EB1
  8
0
 10
33.01776695296624
 20
700.0000000000001
 30
41.73223304703389
 70
   192
  0
VERTEX
  5
2EB2
  8
0
 10
0.0
 20
0.0
 30
0.0
 70
   128
 71
     8
 72
     1
 73
    -4
  0
VERTEX
  5
2EB3
  8
0
 10
0.0
 20
0.0
 30
0.0
 70
   128
 71
     7
 72
    -8
 73
     4
  0
VERTEX
  5
2EB4
  8
0
 10
0.0
 20
0.0
 30
0.0
 70
   128
 71
     6
 72
     8
 73
    -7
  0
VERTEX
  5
2EB5
  8
0
 10
0.0
 20
0.0
 30
0.0
 70
   128
 71
     5
 72
    -6
 73
     7
  0
VERTEX
  5
2EB6
  8
0
 10
0.0
 20
0.0
 30
0.0
 70
   128
 71
    10
 72
     6
 73
    -5
  0
VERTEX
  5
2EB7
  8
0
 10
0.0
 20
0.0
 30
0.0
 70
   128
 71
     9
 72
   -10
 73
     5
  0
VERTEX
  5
2EB8
  8
0
 10
0.0
 20
0.0
 30
0.0
 70
   128
 71
     3
 72
     2
 73
   -10
  0
VERTEX
  5
2EB9
  8
0
 10
0.0
 20
0.0
 30
0.0
 70
   128
 71
     9
 72
    -3
 73
    10
  0
SEQEND
  5
3038
  8
0
  0
POLYLINE
  5
2EBA
  8
0
 66
     1
 10
0.0
 20
0.0
 30
0.0
 70
    64
 71
    10
 72
     8
  0
VERTEX
  5
2EBB
  8
0
 10
-31.2500000000001
 20
700.0000000000001
 30
46.00000000000023
 70
   192
  0
VERTEX
  5
2EBC
  8
0
 10
-31.2500000000001
 20
700.0000000000001
 30
41.00000000000023
 70
   192
  0
VERTEX
  5
2EBD
  8
0
 10
-31.2500000000001
 20
703.0000000000001
 30
41.00000000000023
 70
   192
  0
VERTEX
  5
2EBE
  8
0
 10
-31.2500000000001
 20
703.0000000000001
 30
46.00000000000023
 70
   192
  0
VERTEX
  5
2EBF
  8
0
 10
-28.7500000000001
 20
703.0000000000001
 30
43.50000000000023
 70
   192
  0
VERTEX
  5
2EC0
  8
0
 10
-28.75000000000011
 20
700.0000000000001
 30
43.50000000000023
 70
   192
  0
VERTEX
  5
2EC1
  8
0
 10
-29.48223304703373
 20
703.0000000000001
 30
45.2677669529666
 70
   192
  0
VERTEX
  5
2EC2
  8
0
 10
-29.48223304703373
 20
700.0000000000001
 30
45.2677669529666
 70
   192
  0
VERTEX
  5
2EC3
  8
0
 10
-29.48223304703373
 20
703.0000000000001
 30
41.73223304703387
 70
   192
  0
VERTEX
  5
2EC4
  8
0
 10
-29.48223304703373
 20
700.0000000000001
 30
41.73223304703387
 70
   192
  0
VERTEX
  5
2EC5
  8
0
 10
0.0
 20
0.0
 30
0.0
 70
   128
 71
     8
 72
     1
 73
    -4
  0
VERTEX
  5
2EC6
  8
0
 10
0.0
 20
0.0
 30
0.0
 70
   128
 71
     7
 72
    -8
 73
     4
  0
VERTEX
  5
2EC7
  8
0
 10
0.0
 20
0.0
 30
0.0
 70
   128
 71
     6
 72
     8
 73
    -7
  0
VERTEX
  5
2EC8
  8
0
 10
0.0
 20
0.0
 30
0.0
 70
   128
 71
     5
 72
    -6
 73
     7
  0
VERTEX
  5
2EC9
  8
0
 10
0.0
 20
0.0
 30
0.0
 70
   128
 71
    10
 72
     6
 73
    -5
  0
VERTEX
  5
2ECA
  8
0
 10
0.0
 20
0.0
 30
0.0
 70
   128
 71
     9
 72
   -10
 73
     5
  0
VERTEX
  5
2ECB
  8
0
 10
0.0
 20
0.0
 30
0.0
 70
   128
 71
     3
 72
     2
 73
   -10
  0
VERTEX
  5
2ECC
  8
0
 10
0.0
 20
0.0
 30
0.0
 70
   128
 71
     9
 72
    -3
 73
    10
  0
SEQEND
  5
3039
  8
0
  0
ENDBLK
  5
3025
  8
0
  0
BLOCK
  8
0
  2
*X25
 70
     1
 10
0.0
 20
0.0
 30
0.0
  3
*X25
  1

  0
POLYLINE
  5
2ECE
  8
0
 66
     1
 10
0.0
 20
0.0
 30
0.0
 70
    64
 71
     4
 72
     2
  0
VERTEX
  5
2ECF
  8
0
 10
20.00000000000006
 20
726.0000000000001
 30
32.00000000000004
 70
   192
  0
VERTEX
  5
2ED0
  8
0
 10
20.00000000000007
 20
731.0000000000001
 30
32.00000000000004
 70
   192
  0
VERTEX
  5
2ED1
  8
0
 10
-19.99999999999993
 20
731.0000000000001
 30
32.00000000000004
 70
   192
  0
VERTEX
  5
2ED2
  8
0
 10
-19.99999999999992
 20
726.0000000000001
 30
32.00000000000004
 70
   192
  0
VERTEX
  5
2ED3
  8
0
 10
0.0
 20
0.0
 30
0.0
 70
   128
 71
     1
 72
     4
 73
    -3
  0
VERTEX
  5
2ED4
  8
0
 10
0.0
 20
0.0
 30
0.0
 70
   128
 71
    -1
 72
     3
 73
     2
  0
SEQEND
  5
303C
  8
0
  0
POLYLINE
  5
2ED5
  8
0
 66
     1
 10
0.0
 20
0.0
 30
0.0
 70
    64
 71
     8
 72
     6
  0
VERTEX
  5
2ED6
  8
0
 10
20.00000000000006
 20
724.0000000000001
 30
112.0000000000001
 70
   192
  0
VERTEX
  5
2ED7
  8
0
 10
250.0000000000001
 20
724.0000000000001
 30
112.0000000000001
 70
   192
  0
VERTEX
  5
2ED8
  8
0
 10
250.0000000000001
 20
738.0000000000001
 30
112.0000000000001
 70
   192
  0
VERTEX
  5
2ED9
  8
0
 10
-249.9999999999999
 20
738.0000000000001
 30
112.0000000000001
 70
   192
  0
VERTEX
  5
2EDA
  8
0
 10
-249.9999999999999
 20
724.0
 30
112.0000000000001
 70
   192
  0
VERTEX
  5
2EDB
  8
0
 10
-19.99999999999992
 20
724.0000000000001
 30
112.0000000000001
 70
   192
  0
VERTEX
  5
2EDC
  8
0
 10
-19.99999999999993
 20
731.0000000000001
 30
112.0000000000001
 70
   192
  0
VERTEX
  5
2EDD
  8
0
 10
20.00000000000007
 20
731.0000000000001
 30
112.0000000000001
 70
   192
  0
VERTEX
  5
2EDE
  8
0
 10
0.0
 20
0.0
 30
0.0
 70
   128
 71
     7
 72
     6
 73
    -5
  0
VERTEX
  5
2EDF
  8
0
 10
0.0
 20
0.0
 30
0.0
 70
   128
 71
    -7
 72
     5
 73
    -4
  0
VERTEX
  5
2EE0
  8
0
 10
0.0
 20
0.0
 30
0.0
 70
   128
 71
    -4
 72
     8
 73
    -7
  0
VERTEX
  5
2EE1
  8
0
 10
0.0
 20
0.0
 30
0.0
 70
   128
 71
     4
 72
    -3
 73
    -8
  0
VERTEX
  5
2EE2
  8
0
 10
0.0
 20
0.0
 30
0.0
 70
   128
 71
     3
 72
     2
 73
    -1
  0
VERTEX
  5
2EE3
  8
0
 10
0.0
 20
0.0
 30
0.0
 70
   128
 71
    -3
 72
     1
 73
    -8
  0
SEQEND
  5
303D
  8
0
  0
POLYLINE
  5
2EE4
  8
0
 66
     1
 10
0.0
 20
0.0
 30
0.0
 70
    64
 71
     4
 72
     2
  0
VERTEX
  5
2EE5
  8
0
 10
-249.9999999999999
 20
724.0000000000001
 30
137.0000000000001
 70
   192
  0
VERTEX
  5
2EE6
  8
0
 10
-249.9999999999999
 20
738.0000000000001
 30
137.0000000000001
 70
   192
  0
VERTEX
  5
2EE7
  8
0
 10
-249.9999999999999
 20
738.0000000000001
 30
112.0000000000001
 70
   192
  0
VERTEX
  5
2EE8
  8
0
 10
-249.9999999999999
 20
724.0000000000001
 30
112.0000000000001
 70
   192
  0
VERTEX
  5
2EE9
  8
0
 10
0.0
 20
0.0
 30
0.0
 70
   128
 71
     3
 72
     4
 73
    -1
  0
VERTEX
  5
2EEA
  8
0
 10
0.0
 20
0.0
 30
0.0
 70
   128
 71
     2
 72
    -3
 73
     1
  0
SEQEND
  5
303E
  8
0
  0
POLYLINE
  5
2EEB
  8
0
 66
     1
 10
0.0
 20
0.0
 30
0.0
 70
    64
 71
     4
 72
     2
  0
VERTEX
  5
2EEC
  8
0
 10
-249.9999999999999
 20
738.0
 30
137.0000000000001
 70
   192
  0
VERTEX
  5
2EED
  8
0
 10
250.0000000000001
 20
738.0000000000001
 30
137.0000000000001
 70
   192
  0
VERTEX
  5
2EEE
  8
0
 10
250.0000000000001
 20
738.0000000000001
 30
112.0000000000001
 70
   192
  0
VERTEX
  5
2EEF
  8
0
 10
-249.9999999999999
 20
738.0
 30
112.0000000000001
 70
   192
  0
VERTEX
  5
2EF0
  8
0
 10
0.0
 20
0.0
 30
0.0
 70
   128
 71
     3
 72
     4
 73
    -1
  0
VERTEX
  5
2EF1
  8
0
 10
0.0
 20
0.0
 30
0.0
 70
   128
 71
     2
 72
    -3
 73
     1
  0
SEQEND
  5
303F
  8
0
  0
POLYLINE
  5
2EF2
  8
0
 66
     1
 10
0.0
 20
0.0
 30
0.0
 70
    64
 71
     4
 72
     2
  0
VERTEX
  5
2EF3
  8
0
 10
250.0000000000001
 20
738.0000000000001
 30
137.0000000000001
 70
   192
  0
VERTEX
  5
2EF4
  8
0
 10
250.0000000000001
 20
724.0000000000001
 30
137.0000000000001
 70
   192
  0
VERTEX
  5
2EF5
  8
0
 10
250.0000000000001
 20
724.0000000000001
 30
112.0000000000001
 70
   192
  0
VERTEX
  5
2EF6
  8
0
 10
250.0000000000001
 20
738.0000000000001
 30
112.0000000000001
 70
   192
  0
VERTEX
  5
2EF7
  8
0
 10
0.0
 20
0.0
 30
0.0
 70
   128
 71
     3
 72
     4
 73
    -1
  0
VERTEX
  5
2EF8
  8
0
 10
0.0
 20
0.0
 30
0.0
 70
   128
 71
     2
 72
    -3
 73
     1
  0
SEQEND
  5
3040
  8
0
  0
POLYLINE
  5
2EF9
  8
0
 66
     1
 10
0.0
 20
0.0
 30
0.0
 70
    64
 71
     8
 72
     6
  0
VERTEX
  5
2EFA
  8
0
 10
250.0000000000001
 20
724.0000000000001
 30
137.0000000000001
 70
   192
  0
VERTEX
  5
2EFB
  8
0
 10
-249.9999999999999
 20
724.0
 30
137.0000000000001
 70
   192
  0
VERTEX
  5
2EFC
  8
0
 10
-249.9999999999999
 20
724.0000000000001
 30
112.0000000000001
 70
   192
  0
VERTEX
  5
2EFD
  8
0
 10
-19.99999999999994
 20
724.0000000000001
 30
112.0000000000001
 70
   192
  0
VERTEX
  5
2EFE
  8
0
 10
-19.99999999999992
 20
724.0000000000001
 30
32.00000000000004
 70
   192
  0
VERTEX
  5
2EFF
  8
0
 10
20.00000000000006
 20
724.0000000000001
 30
32.00000000000004
 70
   192
  0
VERTEX
  5
2F00
  8
0
 10
20.00000000000006
 20
724.0000000000001
 30
112.0000000000001
 70
   192
  0
VERTEX
  5
2F01
  8
0
 10
250.0000000000001
 20
724.0000000000001
 30
112.0000000000001
 70
   192
  0
VERTEX
  5
2F02
  8
0
 10
0.0
 20
0.0
 30
0.0
 70
   128
 71
     2
 72
     3
 73
    -4
  0
VERTEX
  5
2F03
  8
0
 10
0.0
 20
0.0
 30
0.0
 70
   128
 71
    -4
 72
    -7
 73
    -2
  0
VERTEX
  5
2F04
  8
0
 10
0.0
 20
0.0
 30
0.0
 70
   128
 71
     5
 72
     6
 73
    -7
  0
VERTEX
  5
2F05
  8
0
 10
0.0
 20
0.0
 30
0.0
 70
   128
 71
     4
 72
    -5
 73
    -7
  0
VERTEX
  5
2F06
  8
0
 10
0.0
 20
0.0
 30
0.0
 70
   128
 71
    -7
 72
     1
 73
    -2
  0
VERTEX
  5
2F07
  8
0
 10
0.0
 20
0.0
 30
0.0
 70
   128
 71
     7
 72
     8
 73
    -1
  0
SEQEND
  5
3041
  8
0
  0
POLYLINE
  5
2F08
  8
0
 66
     1
 10
0.0
 20
0.0
 30
0.0
 70
    64
 71
     4
 72
     2
  0
VERTEX
  5
2F09
  8
0
 10
-249.9999999999999
 20
738.0000000000001
 30
137.0000000000001
 70
   192
  0
VERTEX
  5
2F0A
  8
0
 10
-249.9999999999999
 20
724.0000000000001
 30
137.0000000000001
 70
   192
  0
VERTEX
  5
2F0B
  8
0
 10
250.0000000000001
 20
724.0000000000001
 30
137.0000000000001
 70
   192
  0
VERTEX
  5
2F0C
  8
0
 10
250.0000000000001
 20
738.0000000000001
 30
137.0000000000001
 70
   192
  0
VERTEX
  5
2F0D
  8
0
 10
0.0
 20
0.0
 30
0.0
 70
   128
 71
     3
 72
     4
 73
    -1
  0
VERTEX
  5
2F0E
  8
0
 10
0.0
 20
0.0
 30
0.0
 70
   128
 71
     2
 72
    -3
 73
     1
  0
SEQEND
  5
3042
  8
0
  0
POLYLINE
  5
2F0F
  8
0
 66
     1
 10
0.0
 20
0.0
 30
0.0
 70
    64
 71
     8
 72
     6
  0
VERTEX
  5
2F10
  8
0
 10
20.00000000000007
 20
731.0000000000001
 30
112.0000000000001
 70
   192
  0
VERTEX
  5
2F11
  8
0
 10
20.00000000000007
 20
731.0000000000001
 30
32.00000000000004
 70
   192
  0
VERTEX
  5
2F12
  8
0
 10
20.00000000000007
 20
726.0000000000001
 30
32.00000000000004
 70
   192
  0
VERTEX
  5
2F13
  8
0
 10
20.00000000000007
 20
726.0000000000001
 30
30.00000000000004
 70
   192
  0
VERTEX
  5
2F14
  8
0
 10
20.00000000000007
 20
709.0000000000001
 30
30.00000000000004
 70
   192
  0
VERTEX
  5
2F15
  8
0
 10
20.00000000000007
 20
709.0000000000001
 30
32.00000000000004
 70
   192
  0
VERTEX
  5
2F16
  8
0
 10
20.00000000000006
 20
724.0000000000001
 30
32.00000000000004
 70
   192
  0
VERTEX
  5
2F17
  8
0
 10
20.00000000000006
 20
724.0000000000001
 30
112.0000000000001
 70
   192
  0
VERTEX
  5
2F18
  8
0
 10
0.0
 20
0.0
 30
0.0
 70
   128
 71
     7
 72
     6
 73
    -5
  0
VERTEX
  5
2F19
  8
0
 10
0.0
 20
0.0
 30
0.0
 70
   128
 71
    -7
 72
     5
 73
    -4
  0
VERTEX
  5
2F1A
  8
0
 10
0.0
 20
0.0
 30
0.0
 70
   128
 71
     3
 72
     2
 73
    -1
  0
VERTEX
  5
2F1B
  8
0
 10
0.0
 20
0.0
 30
0.0
 70
   128
 71
    -3
 72
     1
 73
    -8
  0
VERTEX
  5
2F1C
  8
0
 10
0.0
 20
0.0
 30
0.0
 70
   128
 71
     8
 72
    -7
 73
    -3
  0
VERTEX
  5
2F1D
  8
0
 10
0.0
 20
0.0
 30
0.0
 70
   128
 71
    -7
 72
     4
 73
    -3
  0
SEQEND
  5
3043
  8
0
  0
POLYLINE
  5
2F1E
  8
0
 66
     1
 10
0.0
 20
0.0
 30
0.0
 70
    64
 71
     8
 72
     6
  0
VERTEX
  5
2F1F
  8
0
 10
-19.99999999999992
 20
724.0000000000001
 30
112.0000000000001
 70
   192
  0
VERTEX
  5
2F20
  8
0
 10
-19.99999999999992
 20
724.0000000000001
 30
32.00000000000004
 70
   192
  0
VERTEX
  5
2F21
  8
0
 10
-19.9999999999999
 20
709.0000000000001
 30
32.00000000000004
 70
   192
  0
VERTEX
  5
2F22
  8
0
 10
-19.9999999999999
 20
709.0000000000001
 30
30.00000000000004
 70
   192
  0
VERTEX
  5
2F23
  8
0
 10
-19.99999999999992
 20
726.0000000000001
 30
30.00000000000004
 70
   192
  0
VERTEX
  5
2F24
  8
0
 10
-19.99999999999992
 20
726.0000000000001
 30
32.00000000000004
 70
   192
  0
VERTEX
  5
2F25
  8
0
 10
-19.99999999999993
 20
731.0000000000001
 30
32.00000000000004
 70
   192
  0
VERTEX
  5
2F26
  8
0
 10
-19.99999999999993
 20
731.0000000000001
 30
112.0000000000001
 70
   192
  0
VERTEX
  5
2F27
  8
0
 10
0.0
 20
0.0
 30
0.0
 70
   128
 71
    -2
 72
     6
 73
    -5
  0
VERTEX
  5
2F28
  8
0
 10
0.0
 20
0.0
 30
0.0
 70
   128
 71
     5
 72
     4
 73
    -3
  0
VERTEX
  5
2F29
  8
0
 10
0.0
 20
0.0
 30
0.0
 70
   128
 71
    -5
 72
     3
 73
    -2
  0
VERTEX
  5
2F2A
  8
0
 10
0.0
 20
0.0
 30
0.0
 70
   128
 71
    -6
 72
     2
 73
    -1
  0
VERTEX
  5
2F2B
  8
0
 10
0.0
 20
0.0
 30
0.0
 70
   128
 71
     1
 72
     8
 73
    -7
  0
VERTEX
  5
2F2C
  8
0
 10
0.0
 20
0.0
 30
0.0
 70
   128
 71
    -1
 72
     7
 73
    -6
  0
SEQEND
  5
3044
  8
0
  0
POLYLINE
  5
2F2D
  8
0
 66
     1
 10
0.0
 20
0.0
 30
0.0
 70
    64
 71
     4
 72
     2
  0
VERTEX
  5
2F2E
  8
0
 10
-19.99999999999993
 20
731.0000000000001
 30
112.0000000000001
 70
   192
  0
VERTEX
  5
2F2F
  8
0
 10
-19.99999999999993
 20
731.0000000000001
 30
32.00000000000004
 70
   192
  0
VERTEX
  5
2F30
  8
0
 10
20.00000000000007
 20
731.0000000000001
 30
32.00000000000004
 70
   192
  0
VERTEX
  5
2F31
  8
0
 10
20.00000000000007
 20
731.0000000000001
 30
112.0000000000001
 70
   192
  0
VERTEX
  5
2F32
  8
0
 10
0.0
 20
0.0
 30
0.0
 70
   128
 71
     1
 72
     4
 73
    -3
  0
VERTEX
  5
2F33
  8
0
 10
0.0
 20
0.0
 30
0.0
 70
   128
 71
    -1
 72
     3
 73
     2
  0
SEQEND
  5
3045
  8
0
  0
POLYLINE
  5
2F34
  8
0
 66
     1
 10
0.0
 20
0.0
 30
0.0
 70
    64
 71
     4
 72
     2
  0
VERTEX
  5
2F35
  8
0
 10
20.00000000000007
 20
709.0000000000001
 30
32.00000000000004
 70
   192
  0
VERTEX
  5
2F36
  8
0
 10
20.00000000000007
 20
724.0000000000001
 30
32.00000000000004
 70
   192
  0
VERTEX
  5
2F37
  8
0
 10
-19.99999999999992
 20
724.0000000000001
 30
32.00000000000004
 70
   192
  0
VERTEX
  5
2F38
  8
0
 10
-19.9999999999999
 20
709.0000000000001
 30
32.00000000000004
 70
   192
  0
VERTEX
  5
2F39
  8
0
 10
0.0
 20
0.0
 30
0.0
 70
   128
 71
     3
 72
     4
 73
    -1
  0
VERTEX
  5
2F3A
  8
0
 10
0.0
 20
0.0
 30
0.0
 70
   128
 71
     2
 72
    -3
 73
     1
  0
SEQEND
  5
3046
  8
0
  0
POLYLINE
  5
2F3B
  8
0
 66
     1
 10
0.0
 20
0.0
 30
0.0
 70
    64
 71
     4
 72
     2
  0
VERTEX
  5
2F3C
  8
0
 10
-19.99999999999992
 20
726.0000000000001
 30
30.00000000000004
 70
   192
  0
VERTEX
  5
2F3D
  8
0
 10
-19.99999999999992
 20
726.0000000000001
 30
32.00000000000004
 70
   192
  0
VERTEX
  5
2F3E
  8
0
 10
20.00000000000007
 20
726.0000000000001
 30
32.00000000000004
 70
   192
  0
VERTEX
  5
2F3F
  8
0
 10
20.00000000000007
 20
726.0000000000001
 30
30.00000000000004
 70
   192
  0
VERTEX
  5
2F40
  8
0
 10
0.0
 20
0.0
 30
0.0
 70
   128
 71
     3
 72
     4
 73
    -1
  0
VERTEX
  5
2F41
  8
0
 10
0.0
 20
0.0
 30
0.0
 70
   128
 71
     2
 72
    -3
 73
     1
  0
SEQEND
  5
3047
  8
0
  0
POLYLINE
  5
2F42
  8
0
 66
     1
 10
0.0
 20
0.0
 30
0.0
 70
    64
 71
     4
 72
     2
  0
VERTEX
  5
2F43
  8
0
 10
-19.9999999999999
 20
709.0000000000001
 30
30.00000000000004
 70
   192
  0
VERTEX
  5
2F44
  8
0
 10
-19.99999999999992
 20
726.0000000000001
 30
30.00000000000004
 70
   192
  0
VERTEX
  5
2F45
  8
0
 10
20.00000000000007
 20
726.0000000000001
 30
30.00000000000004
 70
   192
  0
VERTEX
  5
2F46
  8
0
 10
20.00000000000007
 20
709.0000000000001
 30
30.00000000000004
 70
   192
  0
VERTEX
  5
2F47
  8
0
 10
0.0
 20
0.0
 30
0.0
 70
   128
 71
     3
 72
     4
 73
    -1
  0
VERTEX
  5
2F48
  8
0
 10
0.0
 20
0.0
 30
0.0
 70
   128
 71
     2
 72
    -3
 73
     1
  0
SEQEND
  5
3048
  8
0
  0
POLYLINE
  5
2F49
  8
0
 66
     1
 10
0.0
 20
0.0
 30
0.0
 70
    64
 71
     4
 72
     2
  0
VERTEX
  5
2F4A
  8
0
 10
-19.9999999999999
 20
709.0000000000001
 30
32.00000000000004
 70
   192
  0
VERTEX
  5
2F4B
  8
0
 10
-19.9999999999999
 20
709.0000000000001
 30
30.00000000000004
 70
   192
  0
VERTEX
  5
2F4C
  8
0
 10
20.00000000000007
 20
709.0000000000001
 30
30.00000000000004
 70
   192
  0
VERTEX
  5
2F4D
  8
0
 10
20.00000000000007
 20
709.0000000000001
 30
32.00000000000004
 70
   192
  0
VERTEX
  5
2F4E
  8
0
 10
0.0
 20
0.0
 30
0.0
 70
   128
 71
     3
 72
     4
 73
    -1
  0
VERTEX
  5
2F4F
  8
0
 10
0.0
 20
0.0
 30
0.0
 70
   128
 71
     2
 72
    -3
 73
     1
  0
SEQEND
  5
3049
  8
0
  0
ENDBLK
  5
303B
  8
0
  0
ENDSEC
  0
SECTION
  2
ENTITIES
  0
INSERT
  5
1E94
  8
0
  2
*X1
 10
0.0
 20
0.0
 30
0.0
  0
INSERT
  5
1E95
  8
0
  2
*X2
 10
0.0
 20
0.0
 30
0.0
  0
INSERT
  5
1E96
  8
0
  2
*X3
 10
0.0
 20
0.0
 30
0.0
  0
INSERT
  5
1E97
  8
0
  2
*X4
 10
0.0
 20
0.0
 30
0.0
  0
INSERT
  5
1E98
  8
0
  2
*X5
 10
0.0
 20
0.0
 30
0.0
  0
INSERT
  5
1E99
  8
0
  2
*X6
 10
0.0
 20
0.0
 30
0.0
  0
INSERT
  5
1E9A
  8
0
  2
*X7
 10
0.0
 20
0.0
 30
0.0
  0
INSERT
  5
1E9B
  8
0
  2
*X8
 10
0.0
 20
0.0
 30
0.0
  0
INSERT
  5
1E9C
  8
0
  2
*X9
 10
0.0
 20
0.0
 30
0.0
  0
INSERT
  5
1E9D
  8
0
  2
*X10
 10
0.0
 20
0.0
 30
0.0
  0
INSERT
  5
1E9E
  8
0
  2
*X11
 10
0.0
 20
0.0
 30
0.0
  0
INSERT
  5
1E9F
  8
0
  2
*X12
 10
0.0
 20
0.0
 30
0.0
  0
INSERT
  5
1EA0
  8
0
  2
*X13
 10
0.0
 20
0.0
 30
0.0
  0
INSERT
  5
1EA1
  8
0
  2
*X14
 10
0.0
 20
0.0
 30
0.0
  0
INSERT
  5
1EA2
  8
0
  2
*X15
 10
0.0
 20
0.0
 30
0.0
  0
INSERT
  5
1EA3
  8
0
  2
*X16
 10
0.0
 20
0.0
 30
0.0
  0
INSERT
  5
1EA4
  8
0
  2
*X17
 10
0.0
 20
0.0
 30
0.0
  0
INSERT
  5
1EA5
  8
0
  2
*X18
 10
0.0
 20
0.0
 30
0.0
  0
INSERT
  5
1EA6
  8
0
  2
*X19
 10
0.0
 20
0.0
 30
0.0
  0
INSERT
  5
1EA7
  8
0
  2
*X20
 10
0.0
 20
0.0
 30
0.0
  0
INSERT
  5
1EA8
  8
0
  2
*X21
 10
0.0
 20
0.0
 30
0.0
  0
INSERT
  5
1EA9
  8
0
  2
*X22
 10
0.0
 20
0.0
 30
0.0
  0
INSERT
  5
1EAA
  8
0
  2
*X23
 10
0.0
 20
0.0
 30
0.0
  0
INSERT
  5
1EAB
  8
0
  2
*X24
 10
0.0
 20
0.0
 30
0.0
  0
INSERT
  5
1EAC
  8
0
  2
*X25
 10
0.0
 20
0.0
 30
0.0
  0
ENDSEC
  0
EOF
