  0
SECTION
  2
HEADER
  9
$ACADVER
  1
AC1009
  9
$DWGCODEPAGE
  3
ansi_1250
  9
$INSBASE
 10
0.0
 20
0.0
 30
0.0
  9
$EXTMIN
 10
-327.0
 20
-9.500000000000142
 30
-89.00000000000014
  9
$EXTMAX
 10
327.0000000000001
 20
738.0000000000001
 30
137.0000000000001
  9
$LIMMIN
 10
0.0
 20
0.0
  9
$LIMMAX
 10
420.0
 20
297.0
  9
$ORTHOMODE
 70
     0
  9
$REGENMODE
 70
     1
  9
$FILLMODE
 70
     1
  9
$QTEXTMODE
 70
     0
  9
$MIRRTEXT
 70
     0
  9
$DRAGMODE
 70
     2
  9
$LTSCALE
 40
1.0
  9
$OSMODE
 70
   511
  9
$ATTMODE
 70
     1
  9
$TEXTSIZE
 40
2.5
  9
$TRACEWID
 40
1.0
  9
$TEXTSTYLE
  7
STANDARD
  9
$CLAYER
  8
0
  9
$CELTYPE
  6
BYLAYER
  9
$CECOLOR
 62
   256
  9
$DIMSCALE
 40
1.0
  9
$DIMASZ
 40
2.5
  9
$DIMEXO
 40
0.625
  9
$DIMDLI
 40
3.75
  9
$DIMRND
 40
0.0
  9
$DIMDLE
 40
0.0
  9
$DIMEXE
 40
1.25
  9
$DIMTP
 40
0.0
  9
$DIMTM
 40
0.0
  9
$DIMTXT
 40
2.5
  9
$DIMCEN
 40
-2.5
  9
$DIMTSZ
 40
0.0
  9
$DIMTOL
 70
     0
  9
$DIMLIM
 70
     0
  9
$DIMTIH
 70
     0
  9
$DIMTOH
 70
     0
  9
$DIMSE1
 70
     0
  9
$DIMSE2
 70
     0
  9
$DIMTAD
 70
     1
  9
$DIMZIN
 70
     8
  9
$DIMBLK
  1

  9
$DIMASO
 70
     1
  9
$DIMSHO
 70
     1
  9
$DIMPOST
  1

  9
$DIMAPOST
  1

  9
$DIMALT
 70
     0
  9
$DIMALTD
 70
     3
  9
$DIMALTF
 40
0.03937007874016
  9
$DIMLFAC
 40
1.0
  9
$DIMTOFL
 70
     1
  9
$DIMTVP
 40
0.0
  9
$DIMTIX
 70
     0
  9
$DIMSOXD
 70
     0
  9
$DIMSAH
 70
     0
  9
$DIMBLK1
  1

  9
$DIMBLK2
  1

  9
$DIMSTYLE
  2
ISO-25
  9
$DIMCLRD
 70
     0
  9
$DIMCLRE
 70
     0
  9
$DIMCLRT
 70
     0
  9
$DIMTFAC
 40
1.0
  9
$DIMGAP
 40
0.625
  9
$LUNITS
 70
     2
  9
$LUPREC
 70
     3
  9
$SKETCHINC
 40
1.0
  9
$FILLETRAD
 40
10.0
  9
$AUNITS
 70
     0
  9
$AUPREC
 70
     0
  9
$MENU
  1
.
  9
$ELEVATION
 40
0.0
  9
$PELEVATION
 40
0.0
  9
$THICKNESS
 40
0.0
  9
$LIMCHECK
 70
     0
  9
$CHAMFERA
 40
10.0
  9
$CHAMFERB
 40
10.0
  9
$SKPOLY
 70
     0
  9
$TDCREATE
 40
2455022.720692848
  9
$TDUPDATE
 40
2460543.688368692
  9
$TDINDWG
 40
0.0481331134
  9
$TDUSRTIMER
 40
0.0481331134
  9
$USRTIMER
 70
     1
  9
$ANGBASE
 50
0.0
  9
$ANGDIR
 70
     0
  9
$PDMODE
 70
     0
  9
$PDSIZE
 40
0.0
  9
$PLINEWID
 40
0.0
  9
$COORDS
 70
     1
  9
$SPLFRAME
 70
     0
  9
$SPLINETYPE
 70
     6
  9
$SPLINESEGS
 70
     8
  9
$ATTDIA
 70
     0
  9
$ATTREQ
 70
     1
  9
$HANDLING
 70
     1
  9
$HANDSEED
  5
1E94
  9
$SURFTAB1
 70
     6
  9
$SURFTAB2
 70
     6
  9
$SURFTYPE
 70
     6
  9
$SURFU
 70
     6
  9
$SURFV
 70
     6
  9
$UCSNAME
  2

  9
$UCSORG
 10
0.0
 20
0.0
 30
0.0
  9
$UCSXDIR
 10
1.0
 20
0.0
 30
0.0
  9
$UCSYDIR
 10
0.0
 20
1.0
 30
0.0
  9
$PUCSNAME
  2

  9
$PUCSORG
 10
0.0
 20
0.0
 30
0.0
  9
$PUCSXDIR
 10
1.0
 20
0.0
 30
0.0
  9
$PUCSYDIR
 10
0.0
 20
1.0
 30
0.0
  9
$USERI1
 70
     0
  9
$USERI2
 70
     0
  9
$USERI3
 70
     0
  9
$USERI4
 70
     0
  9
$USERI5
 70
     0
  9
$USERR1
 40
0.0
  9
$USERR2
 40
0.0
  9
$USERR3
 40
0.0
  9
$USERR4
 40
0.0
  9
$USERR5
 40
0.0
  9
$WORLDVIEW
 70
     1
  9
$SHADEDGE
 70
     3
  9
$SHADEDIF
 70
    70
  9
$TILEMODE
 70
     1
  9
$MAXACTVP
 70
    64
  9
$PLIMCHECK
 70
     0
  9
$PEXTMIN
 10
1.000000000000000E+20
 20
1.000000000000000E+20
 30
1.000000000000000E+20
  9
$PEXTMAX
 10
-1.000000000000000E+20
 20
-1.000000000000000E+20
 30
-1.000000000000000E+20
  9
$PLIMMIN
 10
0.0
 20
0.0
  9
$PLIMMAX
 10
0.0
 20
0.0
  9
$UNITMODE
 70
     0
  9
$VISRETAIN
 70
     1
  9
$PLINEGEN
 70
     0
  9
$PSLTSCALE
 70
     1
  0
ENDSEC
  0
SECTION
  2
TABLES
  0
TABLE
  2
VPORT
 70
     1
  0
VPORT
  2
*ACTIVE
 70
     0
 10
0.0
 20
0.0
 11
1.0
 21
1.0
 12
162.6791668763921
 22
-183.8901008730298
 13
0.0
 23
0.0
 14
10.0
 24
10.0
 15
10.0
 25
10.0
 16
0.5773502691896226
 26
0.5773502691896226
 36
0.5773502691896226
 17
-134.1869158878504
 27
-0.0000000000000426
 37
0.0
 40
730.1806448749517
 41
1.739930955120828
 42
50.0
 43
0.0
 44
0.0
 50
0.0
 51
0.0
 71
    16
 72
  1000
 73
     1
 74
     3
 75
     0
 76
     0
 77
     0
 78
     0
  0
ENDTAB
  0
TABLE
  2
LTYPE
 70
     1
  0
LTYPE
  2
CONTINUOUS
 70
     0
  3
Solid line
 72
    65
 73
     0
 40
0.0
  0
ENDTAB
  0
TABLE
  2
LAYER
 70
     1
  0
LAYER
  2
0
 70
     0
 62
     7
  6
CONTINUOUS
  0
ENDTAB
  0
TABLE
  2
STYLE
 70
     2
  0
STYLE
  2
STANDARD
 70
     0
 40
0.0
 41
1.0
 50
0.0
 71
     0
 42
2.5
  3
arial.ttf
  4

  0
STYLE
  2
ANNOTATIVE
 70
     0
 40
0.0
 41
1.0
 50
0.0
 71
     0
 42
2.5
  3
arial.ttf
  4

  0
ENDTAB
  0
TABLE
  2
VIEW
 70
     0
  0
ENDTAB
  0
TABLE
  2
UCS
 70
     0
  0
ENDTAB
  0
TABLE
  2
APPID
 70
     2
  0
APPID
  2
ACAD
 70
     0
  0
APPID
  2
ACADANNOTATIVE
 70
     0
  0
ENDTAB
  0
TABLE
  2
DIMSTYLE
 70
     2
  0
DIMSTYLE
  2
ISO-25
 70
     0
  3

  4

  5

  6

  7

 40
1.0
 41
2.5
 42
0.625
 43
3.75
 44
1.25
 45
0.0
 46
0.0
 47
0.0
 48
0.0
140
2.5
141
-2.5
142
0.0
143
0.03937007874016
144
1.0
145
0.0
146
1.0
147
0.625
 71
     0
 72
     0
 73
     0
 74
     0
 75
     0
 76
     0
 77
     1
 78
     8
170
     0
171
     3
172
     1
173
     0
174
     0
175
     0
176
     0
177
     0
178
     0
  0
DIMSTYLE
  2
ANNOTATIVE
 70
     0
  3

  4

  5

  6

  7

 40
0.0
 41
2.5
 42
0.625
 43
3.75
 44
1.25
 45
0.0
 46
0.0
 47
0.0
 48
0.0
140
2.5
141
-2.5
142
0.0
143
0.03937007874016
144
1.0
145
0.0
146
1.0
147
0.625
 71
     0
 72
     0
 73
     0
 74
     0
 75
     0
 76
     0
 77
     1
 78
     8
170
     0
171
     3
172
     1
173
     0
174
     0
175
     0
176
     0
177
     0
178
     0
  0
ENDTAB
  0
ENDSEC
  0
SECTION
  2
BLOCKS
  0
BLOCK
  8
0
  2
$MODEL_SPACE
 70
     0
 10
0.0
 20
0.0
 30
0.0
  3
$MODEL_SPACE
  1

  0
ENDBLK
  5
21
  8
0
  0
BLOCK
 67
     1
  8
0
  2
$PAPER_SPACE
 70
     0
 10
0.0
 20
0.0
 30
0.0
  3
$PAPER_SPACE
  1

  0
ENDBLK
  5
1D
 67
     1
  8
0
  0
BLOCK
  8
0
  2
*X1
 70
     1
 10
0.0
 20
0.0
 30
0.0
  3
*X1
  1

  0
POLYLINE
  5
172E
  8
0
 66
     1
 10
0.0
 20
0.0
 30
0.0
 70
    64
 71
     4
 72
     2
  0
VERTEX
  5
172F
  8
0
 10
-284.0000000000001
 20
0.0
 30
-62.00000000000008
 70
   192
  0
VERTEX
  5
1730
  8
0
 10
-284.0000000000001
 20
0.0
 30
61.99999999999994
 70
   192
  0
VERTEX
  5
1731
  8
0
 10
-284.0000000000001
 20
18.0
 30
61.99999999999994
 70
   192
  0
VERTEX
  5
1732
  8
0
 10
-284.0000000000001
 20
18.0
 30
-62.00000000000008
 70
   192
  0
VERTEX
  5
1733
  8
0
 10
0.0
 20
0.0
 30
0.0
 70
   128
 71
     3
 72
     4
 73
    -1
  0
VERTEX
  5
1734
  8
0
 10
0.0
 20
0.0
 30
0.0
 70
   128
 71
     2
 72
    -3
 73
     1
  0
SEQEND
  5
1DD1
  8
0
  0
POLYLINE
  5
1735
  8
0
 66
     1
 10
0.0
 20
0.0
 30
0.0
 70
    64
 71
     4
 72
     2
  0
VERTEX
  5
1736
  8
0
 10
-284.0000000000001
 20
0.0
 30
61.99999999999994
 70
   192
  0
VERTEX
  5
1737
  8
0
 10
284.0000000000001
 20
0.0
 30
61.99999999999986
 70
   192
  0
VERTEX
  5
1738
  8
0
 10
284.0000000000001
 20
18.0
 30
61.99999999999986
 70
   192
  0
VERTEX
  5
1739
  8
0
 10
-284.0000000000001
 20
18.0
 30
61.99999999999994
 70
   192
  0
VERTEX
  5
173A
  8
0
 10
0.0
 20
0.0
 30
0.0
 70
   128
 71
     3
 72
     4
 73
    -1
  0
VERTEX
  5
173B
  8
0
 10
0.0
 20
0.0
 30
0.0
 70
   128
 71
     2
 72
    -3
 73
     1
  0
SEQEND
  5
1DD2
  8
0
  0
POLYLINE
  5
173C
  8
0
 66
     1
 10
0.0
 20
0.0
 30
0.0
 70
    64
 71
     4
 72
     2
  0
VERTEX
  5
173D
  8
0
 10
284.0000000000001
 20
0.0
 30
61.99999999999986
 70
   192
  0
VERTEX
  5
173E
  8
0
 10
284.0000000000001
 20
18.0
 30
61.99999999999986
 70
   192
  0
VERTEX
  5
173F
  8
0
 10
284.0000000000001
 20
18.0
 30
-61.99999999999996
 70
   192
  0
VERTEX
  5
1740
  8
0
 10
284.0000000000001
 20
0.0
 30
-61.99999999999996
 70
   192
  0
VERTEX
  5
1741
  8
0
 10
0.0
 20
0.0
 30
0.0
 70
   128
 71
     1
 72
     4
 73
    -3
  0
VERTEX
  5
1742
  8
0
 10
0.0
 20
0.0
 30
0.0
 70
   128
 71
    -1
 72
     3
 73
     2
  0
SEQEND
  5
1DD3
  8
0
  0
POLYLINE
  5
1743
  8
0
 66
     1
 10
0.0
 20
0.0
 30
0.0
 70
    64
 71
     4
 72
     2
  0
VERTEX
  5
1744
  8
0
 10
284.0000000000001
 20
0.0
 30
-61.99999999999996
 70
   192
  0
VERTEX
  5
1745
  8
0
 10
284.0000000000001
 20
18.0
 30
-61.99999999999996
 70
   192
  0
VERTEX
  5
1746
  8
0
 10
-284.0000000000001
 20
18.0
 30
-62.00000000000007
 70
   192
  0
VERTEX
  5
1747
  8
0
 10
-284.0000000000001
 20
0.0
 30
-62.00000000000007
 70
   192
  0
VERTEX
  5
1748
  8
0
 10
0.0
 20
0.0
 30
0.0
 70
   128
 71
     1
 72
     4
 73
    -3
  0
VERTEX
  5
1749
  8
0
 10
0.0
 20
0.0
 30
0.0
 70
   128
 71
    -1
 72
     3
 73
     2
  0
SEQEND
  5
1DD4
  8
0
  0
POLYLINE
  5
174A
  8
0
 66
     1
 10
0.0
 20
0.0
 30
0.0
 70
    64
 71
     4
 72
     2
  0
VERTEX
  5
174B
  8
0
 10
-284.0000000000001
 20
18.0
 30
-62.00000000000008
 70
   192
  0
VERTEX
  5
174C
  8
0
 10
-284.0000000000001
 20
18.0
 30
61.99999999999994
 70
   192
  0
VERTEX
  5
174D
  8
0
 10
284.0000000000001
 20
18.0
 30
61.99999999999986
 70
   192
  0
VERTEX
  5
174E
  8
0
 10
284.0000000000001
 20
18.0
 30
-61.99999999999996
 70
   192
  0
VERTEX
  5
174F
  8
0
 10
0.0
 20
0.0
 30
0.0
 70
   128
 71
     3
 72
     4
 73
    -1
  0
VERTEX
  5
1750
  8
0
 10
0.0
 20
0.0
 30
0.0
 70
   128
 71
     2
 72
    -3
 73
     1
  0
SEQEND
  5
1DD5
  8
0
  0
POLYLINE
  5
1751
  8
0
 66
     1
 10
0.0
 20
0.0
 30
0.0
 70
    64
 71
     4
 72
     2
  0
VERTEX
  5
1752
  8
0
 10
-284.0000000000001
 20
0.0
 30
61.99999999999994
 70
   192
  0
VERTEX
  5
1753
  8
0
 10
284.0000000000001
 20
0.0
 30
61.99999999999986
 70
   192
  0
VERTEX
  5
1754
  8
0
 10
284.0000000000001
 20
0.0
 30
-61.99999999999996
 70
   192
  0
VERTEX
  5
1755
  8
0
 10
-284.0000000000001
 20
0.0
 30
-62.00000000000008
 70
   192
  0
VERTEX
  5
1756
  8
0
 10
0.0
 20
0.0
 30
0.0
 70
   128
 71
     1
 72
     4
 73
    -3
  0
VERTEX
  5
1757
  8
0
 10
0.0
 20
0.0
 30
0.0
 70
   128
 71
    -1
 72
     3
 73
     2
  0
SEQEND
  5
1DD6
  8
0
  0
ENDBLK
  5
1DD0
  8
0
  0
BLOCK
  8
0
  2
*X2
 70
     1
 10
0.0
 20
0.0
 30
0.0
  3
*X2
  1

  0
POLYLINE
  5
1759
  8
0
 66
     1
 10
0.0
 20
0.0
 30
0.0
 70
    64
 71
     4
 72
     2
  0
VERTEX
  5
175A
  8
0
 10
-302.0000000000001
 20
-0.5
 30
-89.00000000000006
 70
   192
  0
VERTEX
  5
175B
  8
0
 10
-302.0000000000001
 20
-0.5
 30
61.99999999999993
 70
   192
  0
VERTEX
  5
175C
  8
0
 10
-302.0000000000001
 20
700.5
 30
61.99999999999993
 70
   192
  0
VERTEX
  5
175D
  8
0
 10
-302.0000000000001
 20
700.5
 30
-89.00000000000006
 70
   192
  0
VERTEX
  5
175E
  8
0
 10
0.0
 20
0.0
 30
0.0
 70
   128
 71
     3
 72
     4
 73
    -1
  0
VERTEX
  5
175F
  8
0
 10
0.0
 20
0.0
 30
0.0
 70
   128
 71
     2
 72
    -3
 73
     1
  0
SEQEND
  5
1DD9
  8
0
  0
POLYLINE
  5
1760
  8
0
 66
     1
 10
0.0
 20
0.0
 30
0.0
 70
    64
 71
     4
 72
     2
  0
VERTEX
  5
1761
  8
0
 10
-302.0000000000001
 20
-0.5
 30
61.99999999999994
 70
   192
  0
VERTEX
  5
1762
  8
0
 10
-284.0000000000001
 20
-0.5
 30
61.99999999999994
 70
   192
  0
VERTEX
  5
1763
  8
0
 10
-284.0000000000001
 20
700.5
 30
61.99999999999994
 70
   192
  0
VERTEX
  5
1764
  8
0
 10
-302.0000000000001
 20
700.5
 30
61.99999999999994
 70
   192
  0
VERTEX
  5
1765
  8
0
 10
0.0
 20
0.0
 30
0.0
 70
   128
 71
     3
 72
     4
 73
    -1
  0
VERTEX
  5
1766
  8
0
 10
0.0
 20
0.0
 30
0.0
 70
   128
 71
     2
 72
    -3
 73
     1
  0
SEQEND
  5
1DDA
  8
0
  0
POLYLINE
  5
1767
  8
0
 66
     1
 10
0.0
 20
0.0
 30
0.0
 70
    64
 71
     4
 72
     2
  0
VERTEX
  5
1768
  8
0
 10
-284.0000000000001
 20
-0.5
 30
61.99999999999994
 70
   192
  0
VERTEX
  5
1769
  8
0
 10
-284.0000000000001
 20
700.5
 30
61.99999999999994
 70
   192
  0
VERTEX
  5
176A
  8
0
 10
-284.0000000000001
 20
700.5
 30
-89.00000000000006
 70
   192
  0
VERTEX
  5
176B
  8
0
 10
-284.0000000000001
 20
-0.5
 30
-89.00000000000006
 70
   192
  0
VERTEX
  5
176C
  8
0
 10
0.0
 20
0.0
 30
0.0
 70
   128
 71
     1
 72
     4
 73
    -3
  0
VERTEX
  5
176D
  8
0
 10
0.0
 20
0.0
 30
0.0
 70
   128
 71
    -1
 72
     3
 73
     2
  0
SEQEND
  5
1DDB
  8
0
  0
POLYLINE
  5
176E
  8
0
 66
     1
 10
0.0
 20
0.0
 30
0.0
 70
    64
 71
     4
 72
     2
  0
VERTEX
  5
176F
  8
0
 10
-284.0000000000001
 20
-0.5
 30
-89.00000000000006
 70
   192
  0
VERTEX
  5
1770
  8
0
 10
-284.0000000000001
 20
700.5
 30
-89.00000000000006
 70
   192
  0
VERTEX
  5
1771
  8
0
 10
-302.0000000000001
 20
700.5
 30
-89.00000000000006
 70
   192
  0
VERTEX
  5
1772
  8
0
 10
-302.0000000000001
 20
-0.5
 30
-89.00000000000006
 70
   192
  0
VERTEX
  5
1773
  8
0
 10
0.0
 20
0.0
 30
0.0
 70
   128
 71
     1
 72
     4
 73
    -3
  0
VERTEX
  5
1774
  8
0
 10
0.0
 20
0.0
 30
0.0
 70
   128
 71
    -1
 72
     3
 73
     2
  0
SEQEND
  5
1DDC
  8
0
  0
POLYLINE
  5
1775
  8
0
 66
     1
 10
0.0
 20
0.0
 30
0.0
 70
    64
 71
     4
 72
     2
  0
VERTEX
  5
1776
  8
0
 10
-302.0000000000001
 20
700.5
 30
-89.00000000000006
 70
   192
  0
VERTEX
  5
1777
  8
0
 10
-302.0000000000001
 20
700.5
 30
61.99999999999993
 70
   192
  0
VERTEX
  5
1778
  8
0
 10
-284.0000000000001
 20
700.5
 30
61.99999999999994
 70
   192
  0
VERTEX
  5
1779
  8
0
 10
-284.0000000000001
 20
700.5
 30
-89.00000000000006
 70
   192
  0
VERTEX
  5
177A
  8
0
 10
0.0
 20
0.0
 30
0.0
 70
   128
 71
     3
 72
     4
 73
    -1
  0
VERTEX
  5
177B
  8
0
 10
0.0
 20
0.0
 30
0.0
 70
   128
 71
     2
 72
    -3
 73
     1
  0
SEQEND
  5
1DDD
  8
0
  0
POLYLINE
  5
177C
  8
0
 66
     1
 10
0.0
 20
0.0
 30
0.0
 70
    64
 71
     4
 72
     2
  0
VERTEX
  5
177D
  8
0
 10
-302.0000000000001
 20
-0.5
 30
61.99999999999994
 70
   192
  0
VERTEX
  5
177E
  8
0
 10
-284.0000000000001
 20
-0.5
 30
61.99999999999994
 70
   192
  0
VERTEX
  5
177F
  8
0
 10
-284.0000000000001
 20
-0.5
 30
-89.00000000000006
 70
   192
  0
VERTEX
  5
1780
  8
0
 10
-302.0000000000001
 20
-0.5
 30
-89.00000000000006
 70
   192
  0
VERTEX
  5
1781
  8
0
 10
0.0
 20
0.0
 30
0.0
 70
   128
 71
     1
 72
     4
 73
    -3
  0
VERTEX
  5
1782
  8
0
 10
0.0
 20
0.0
 30
0.0
 70
   128
 71
    -1
 72
     3
 73
     2
  0
SEQEND
  5
1DDE
  8
0
  0
ENDBLK
  5
1DD8
  8
0
  0
BLOCK
  8
0
  2
*X3
 70
     1
 10
0.0
 20
0.0
 30
0.0
  3
*X3
  1

  0
POLYLINE
  5
1784
  8
0
 66
     1
 10
0.0
 20
0.0
 30
0.0
 70
    64
 71
     4
 72
     2
  0
VERTEX
  5
1785
  8
0
 10
284.0000000000001
 20
-0.5
 30
-89.00000000000011
 70
   192
  0
VERTEX
  5
1786
  8
0
 10
284.0000000000001
 20
-0.5
 30
61.99999999999986
 70
   192
  0
VERTEX
  5
1787
  8
0
 10
284.0000000000001
 20
700.5
 30
61.99999999999986
 70
   192
  0
VERTEX
  5
1788
  8
0
 10
284.0000000000001
 20
700.5
 30
-89.00000000000011
 70
   192
  0
VERTEX
  5
1789
  8
0
 10
0.0
 20
0.0
 30
0.0
 70
   128
 71
     3
 72
     4
 73
    -1
  0
VERTEX
  5
178A
  8
0
 10
0.0
 20
0.0
 30
0.0
 70
   128
 71
     2
 72
    -3
 73
     1
  0
SEQEND
  5
1DE1
  8
0
  0
POLYLINE
  5
178B
  8
0
 66
     1
 10
0.0
 20
0.0
 30
0.0
 70
    64
 71
     4
 72
     2
  0
VERTEX
  5
178C
  8
0
 10
284.0000000000001
 20
-0.5
 30
61.99999999999986
 70
   192
  0
VERTEX
  5
178D
  8
0
 10
284.0000000000001
 20
700.5
 30
61.99999999999987
 70
   192
  0
VERTEX
  5
178E
  8
0
 10
302.0000000000001
 20
700.5
 30
61.99999999999985
 70
   192
  0
VERTEX
  5
178F
  8
0
 10
302.0000000000001
 20
-0.5
 30
61.99999999999986
 70
   192
  0
VERTEX
  5
1790
  8
0
 10
0.0
 20
0.0
 30
0.0
 70
   128
 71
     1
 72
     4
 73
    -3
  0
VERTEX
  5
1791
  8
0
 10
0.0
 20
0.0
 30
0.0
 70
   128
 71
    -1
 72
     3
 73
     2
  0
SEQEND
  5
1DE2
  8
0
  0
POLYLINE
  5
1792
  8
0
 66
     1
 10
0.0
 20
0.0
 30
0.0
 70
    64
 71
     4
 72
     2
  0
VERTEX
  5
1793
  8
0
 10
302.0000000000001
 20
-0.5
 30
61.99999999999984
 70
   192
  0
VERTEX
  5
1794
  8
0
 10
302.0000000000001
 20
-0.5
 30
-89.00000000000011
 70
   192
  0
VERTEX
  5
1795
  8
0
 10
302.0000000000001
 20
700.5
 30
-89.00000000000011
 70
   192
  0
VERTEX
  5
1796
  8
0
 10
302.0000000000001
 20
700.5
 30
61.99999999999984
 70
   192
  0
VERTEX
  5
1797
  8
0
 10
0.0
 20
0.0
 30
0.0
 70
   128
 71
     3
 72
     4
 73
    -1
  0
VERTEX
  5
1798
  8
0
 10
0.0
 20
0.0
 30
0.0
 70
   128
 71
     2
 72
    -3
 73
     1
  0
SEQEND
  5
1DE3
  8
0
  0
POLYLINE
  5
1799
  8
0
 66
     1
 10
0.0
 20
0.0
 30
0.0
 70
    64
 71
     4
 72
     2
  0
VERTEX
  5
179A
  8
0
 10
302.0000000000001
 20
-0.5
 30
-89.00000000000011
 70
   192
  0
VERTEX
  5
179B
  8
0
 10
284.0000000000001
 20
-0.5
 30
-89.00000000000011
 70
   192
  0
VERTEX
  5
179C
  8
0
 10
284.0000000000001
 20
700.5
 30
-89.00000000000011
 70
   192
  0
VERTEX
  5
179D
  8
0
 10
302.0000000000001
 20
700.5
 30
-89.00000000000011
 70
   192
  0
VERTEX
  5
179E
  8
0
 10
0.0
 20
0.0
 30
0.0
 70
   128
 71
     3
 72
     4
 73
    -1
  0
VERTEX
  5
179F
  8
0
 10
0.0
 20
0.0
 30
0.0
 70
   128
 71
     2
 72
    -3
 73
     1
  0
SEQEND
  5
1DE4
  8
0
  0
POLYLINE
  5
17A0
  8
0
 66
     1
 10
0.0
 20
0.0
 30
0.0
 70
    64
 71
     4
 72
     2
  0
VERTEX
  5
17A1
  8
0
 10
284.0000000000001
 20
700.5
 30
-89.00000000000011
 70
   192
  0
VERTEX
  5
17A2
  8
0
 10
284.0000000000001
 20
700.5
 30
61.99999999999986
 70
   192
  0
VERTEX
  5
17A3
  8
0
 10
302.0000000000001
 20
700.5
 30
61.99999999999986
 70
   192
  0
VERTEX
  5
17A4
  8
0
 10
302.0000000000001
 20
700.5
 30
-89.00000000000011
 70
   192
  0
VERTEX
  5
17A5
  8
0
 10
0.0
 20
0.0
 30
0.0
 70
   128
 71
     3
 72
     4
 73
    -1
  0
VERTEX
  5
17A6
  8
0
 10
0.0
 20
0.0
 30
0.0
 70
   128
 71
     2
 72
    -3
 73
     1
  0
SEQEND
  5
1DE5
  8
0
  0
POLYLINE
  5
17A7
  8
0
 66
     1
 10
0.0
 20
0.0
 30
0.0
 70
    64
 71
     4
 72
     2
  0
VERTEX
  5
17A8
  8
0
 10
284.0000000000001
 20
-0.5
 30
61.99999999999987
 70
   192
  0
VERTEX
  5
17A9
  8
0
 10
302.0000000000001
 20
-0.5
 30
61.99999999999984
 70
   192
  0
VERTEX
  5
17AA
  8
0
 10
302.0000000000001
 20
-0.5
 30
-89.00000000000011
 70
   192
  0
VERTEX
  5
17AB
  8
0
 10
284.0000000000001
 20
-0.5
 30
-89.00000000000011
 70
   192
  0
VERTEX
  5
17AC
  8
0
 10
0.0
 20
0.0
 30
0.0
 70
   128
 71
     1
 72
     4
 73
    -3
  0
VERTEX
  5
17AD
  8
0
 10
0.0
 20
0.0
 30
0.0
 70
   128
 71
    -1
 72
     3
 73
     2
  0
SEQEND
  5
1DE6
  8
0
  0
ENDBLK
  5
1DE0
  8
0
  0
BLOCK
  8
0
  2
*X4
 70
     1
 10
0.0
 20
0.0
 30
0.0
  3
*X4
  1

  0
POLYLINE
  5
17AF
  8
0
 66
     1
 10
0.0
 20
0.0
 30
0.0
 70
    64
 71
     4
 72
     2
  0
VERTEX
  5
17B0
  8
0
 10
-302.0000000000001
 20
-0.5
 30
-89.00000000000006
 70
   192
  0
VERTEX
  5
17B1
  8
0
 10
-302.0000000000001
 20
700.5
 30
-89.00000000000006
 70
   192
  0
VERTEX
  5
17B2
  8
0
 10
-327.0000000000001
 20
700.5
 30
-89.00000000000006
 70
   192
  0
VERTEX
  5
17B3
  8
0
 10
-327.0000000000001
 20
-0.5
 30
-89.00000000000006
 70
   192
  0
VERTEX
  5
17B4
  8
0
 10
0.0
 20
0.0
 30
0.0
 70
   128
 71
     1
 72
     4
 73
    -3
  0
VERTEX
  5
17B5
  8
0
 10
0.0
 20
0.0
 30
0.0
 70
   128
 71
    -1
 72
     3
 73
     2
  0
SEQEND
  5
1DE9
  8
0
  0
POLYLINE
  5
17B6
  8
0
 66
     1
 10
0.0
 20
0.0
 30
0.0
 70
    64
 71
     4
 72
     2
  0
VERTEX
  5
17B7
  8
0
 10
-327.0000000000001
 20
-0.5
 30
-89.00000000000006
 70
   192
  0
VERTEX
  5
17B8
  8
0
 10
-327.0000000000001
 20
700.5
 30
-89.00000000000006
 70
   192
  0
VERTEX
  5
17B9
  8
0
 10
-327.0000000000001
 20
700.5
 30
56.99999999999991
 70
   192
  0
VERTEX
  5
17BA
  8
0
 10
-327.0
 20
-0.5
 30
56.99999999999991
 70
   192
  0
VERTEX
  5
17BB
  8
0
 10
0.0
 20
0.0
 30
0.0
 70
   128
 71
     1
 72
     4
 73
    -3
  0
VERTEX
  5
17BC
  8
0
 10
0.0
 20
0.0
 30
0.0
 70
   128
 71
    -1
 72
     3
 73
     2
  0
SEQEND
  5
1DEA
  8
0
  0
POLYLINE
  5
17BD
  8
0
 66
     1
 10
0.0
 20
0.0
 30
0.0
 70
    64
 71
     8
 72
     6
  0
VERTEX
  5
17BE
  8
0
 10
-314.5000000000001
 20
-0.5
 30
78.65063509461086
 70
   192
  0
VERTEX
  5
17BF
  8
0
 10
-314.5000000000001
 20
700.5
 30
78.65063509461086
 70
   192
  0
VERTEX
  5
17C0
  8
0
 10
-323.650635094611
 20
700.5
 30
69.49999999999991
 70
   192
  0
VERTEX
  5
17C1
  8
0
 10
-323.650635094611
 20
-0.5
 30
69.49999999999991
 70
   192
  0
VERTEX
  5
17C2
  8
0
 10
-302.0000000000001
 20
-0.5
 30
81.99999999999991
 70
   192
  0
VERTEX
  5
17C3
  8
0
 10
-302.0000000000001
 20
700.5
 30
81.9999999999999
 70
   192
  0
VERTEX
  5
17C4
  8
0
 10
-327.0000000000001
 20
700.5
 30
56.99999999999991
 70
   192
  0
VERTEX
  5
17C5
  8
0
 10
-327.0000000000001
 20
-0.5
 30
56.99999999999991
 70
   192
  0
VERTEX
  5
17C6
  8
0
 10
0.0
 20
0.0
 30
0.0
 70
   128
 71
     1
 72
     2
 73
    -3
  0
VERTEX
  5
17C7
  8
0
 10
0.0
 20
0.0
 30
0.0
 70
   128
 71
    -1
 72
     3
 73
     4
  0
VERTEX
  5
17C8
  8
0
 10
0.0
 20
0.0
 30
0.0
 70
   128
 71
     5
 72
     6
 73
    -2
  0
VERTEX
  5
17C9
  8
0
 10
0.0
 20
0.0
 30
0.0
 70
   128
 71
    -5
 72
     2
 73
     1
  0
VERTEX
  5
17CA
  8
0
 10
0.0
 20
0.0
 30
0.0
 70
   128
 71
     4
 72
     3
 73
    -7
  0
VERTEX
  5
17CB
  8
0
 10
0.0
 20
0.0
 30
0.0
 70
   128
 71
    -4
 72
     7
 73
     8
  0
SEQEND
  5
1DEB
  8
0
  0
POLYLINE
  5
17CC
  8
0
 66
     1
 10
0.0
 20
0.0
 30
0.0
 70
    64
 71
     4
 72
     2
  0
VERTEX
  5
17CD
  8
0
 10
-302.0000000000001
 20
-0.5
 30
81.99999999999989
 70
   192
  0
VERTEX
  5
17CE
  8
0
 10
-302.0000000000001
 20
-0.5
 30
-89.00000000000006
 70
   192
  0
VERTEX
  5
17CF
  8
0
 10
-302.0000000000001
 20
700.5
 30
-89.00000000000006
 70
   192
  0
VERTEX
  5
17D0
  8
0
 10
-302.0000000000001
 20
700.5
 30
81.99999999999989
 70
   192
  0
VERTEX
  5
17D1
  8
0
 10
0.0
 20
0.0
 30
0.0
 70
   128
 71
     3
 72
     4
 73
    -1
  0
VERTEX
  5
17D2
  8
0
 10
0.0
 20
0.0
 30
0.0
 70
   128
 71
     2
 72
    -3
 73
     1
  0
SEQEND
  5
1DEC
  8
0
  0
POLYLINE
  5
17D3
  8
0
 66
     1
 10
0.0
 20
0.0
 30
0.0
 70
    64
 71
     6
 72
     4
  0
VERTEX
  5
17D4
  8
0
 10
-302.0000000000001
 20
700.5
 30
-89.00000000000006
 70
   192
  0
VERTEX
  5
17D5
  8
0
 10
-327.0000000000001
 20
700.5
 30
-89.00000000000006
 70
   192
  0
VERTEX
  5
17D6
  8
0
 10
-327.0
 20
700.5
 30
56.99999999999991
 70
   192
  0
VERTEX
  5
17D7
  8
0
 10
-323.650635094611
 20
700.5
 30
69.49999999999991
 70
   192
  0
VERTEX
  5
17D8
  8
0
 10
-314.5000000000001
 20
700.5
 30
78.65063509461086
 70
   192
  0
VERTEX
  5
17D9
  8
0
 10
-302.0000000000001
 20
700.5
 30
81.99999999999991
 70
   192
  0
VERTEX
  5
17DA
  8
0
 10
0.0
 20
0.0
 30
0.0
 70
   128
 71
     5
 72
     6
 73
    -1
  0
VERTEX
  5
17DB
  8
0
 10
0.0
 20
0.0
 30
0.0
 70
   128
 71
     4
 72
    -5
 73
    -1
  0
VERTEX
  5
17DC
  8
0
 10
0.0
 20
0.0
 30
0.0
 70
   128
 71
     3
 72
    -4
 73
    -1
  0
VERTEX
  5
17DD
  8
0
 10
0.0
 20
0.0
 30
0.0
 70
   128
 71
     2
 72
    -3
 73
     1
  0
SEQEND
  5
1DED
  8
0
  0
POLYLINE
  5
17DE
  8
0
 66
     1
 10
0.0
 20
0.0
 30
0.0
 70
    64
 71
     6
 72
     4
  0
VERTEX
  5
17DF
  8
0
 10
-327.0000000000001
 20
-0.5
 30
-89.00000000000006
 70
   192
  0
VERTEX
  5
17E0
  8
0
 10
-327.0000000000001
 20
-0.5
 30
56.99999999999991
 70
   192
  0
VERTEX
  5
17E1
  8
0
 10
-323.650635094611
 20
-0.5
 30
69.49999999999991
 70
   192
  0
VERTEX
  5
17E2
  8
0
 10
-314.5000000000001
 20
-0.5
 30
78.65063509461086
 70
   192
  0
VERTEX
  5
17E3
  8
0
 10
-302.0000000000001
 20
-0.5
 30
81.99999999999989
 70
   192
  0
VERTEX
  5
17E4
  8
0
 10
-302.0000000000001
 20
-0.5
 30
-89.00000000000006
 70
   192
  0
VERTEX
  5
17E5
  8
0
 10
0.0
 20
0.0
 30
0.0
 70
   128
 71
     1
 72
     6
 73
    -5
  0
VERTEX
  5
17E6
  8
0
 10
0.0
 20
0.0
 30
0.0
 70
   128
 71
    -1
 72
     5
 73
    -4
  0
VERTEX
  5
17E7
  8
0
 10
0.0
 20
0.0
 30
0.0
 70
   128
 71
    -1
 72
     4
 73
    -3
  0
VERTEX
  5
17E8
  8
0
 10
0.0
 20
0.0
 30
0.0
 70
   128
 71
    -1
 72
     3
 73
     2
  0
SEQEND
  5
1DEE
  8
0
  0
ENDBLK
  5
1DE8
  8
0
  0
BLOCK
  8
0
  2
*X5
 70
     1
 10
0.0
 20
0.0
 30
0.0
  3
*X5
  1

  0
POLYLINE
  5
17EA
  8
0
 66
     1
 10
0.0
 20
0.0
 30
0.0
 70
    64
 71
     4
 72
     2
  0
VERTEX
  5
17EB
  8
0
 10
327.0000000000001
 20
-0.5
 30
-89.00000000000014
 70
   192
  0
VERTEX
  5
17EC
  8
0
 10
302.0000000000001
 20
-0.5
 30
-89.00000000000013
 70
   192
  0
VERTEX
  5
17ED
  8
0
 10
302.0000000000001
 20
700.5
 30
-89.00000000000011
 70
   192
  0
VERTEX
  5
17EE
  8
0
 10
327.0000000000001
 20
700.5
 30
-89.00000000000014
 70
   192
  0
VERTEX
  5
17EF
  8
0
 10
0.0
 20
0.0
 30
0.0
 70
   128
 71
     3
 72
     4
 73
    -1
  0
VERTEX
  5
17F0
  8
0
 10
0.0
 20
0.0
 30
0.0
 70
   128
 71
     2
 72
    -3
 73
     1
  0
SEQEND
  5
1DF1
  8
0
  0
POLYLINE
  5
17F1
  8
0
 66
     1
 10
0.0
 20
0.0
 30
0.0
 70
    64
 71
     4
 72
     2
  0
VERTEX
  5
17F2
  8
0
 10
302.0000000000001
 20
-0.5
 30
-89.00000000000011
 70
   192
  0
VERTEX
  5
17F3
  8
0
 10
302.0000000000001
 20
700.5
 30
-89.00000000000011
 70
   192
  0
VERTEX
  5
17F4
  8
0
 10
302.0000000000001
 20
700.5
 30
81.99999999999984
 70
   192
  0
VERTEX
  5
17F5
  8
0
 10
302.0000000000001
 20
-0.5
 30
81.99999999999984
 70
   192
  0
VERTEX
  5
17F6
  8
0
 10
0.0
 20
0.0
 30
0.0
 70
   128
 71
     1
 72
     4
 73
    -3
  0
VERTEX
  5
17F7
  8
0
 10
0.0
 20
0.0
 30
0.0
 70
   128
 71
    -1
 72
     3
 73
     2
  0
SEQEND
  5
1DF2
  8
0
  0
POLYLINE
  5
17F8
  8
0
 66
     1
 10
0.0
 20
0.0
 30
0.0
 70
    64
 71
     8
 72
     6
  0
VERTEX
  5
17F9
  8
0
 10
323.650635094611
 20
-0.5
 30
69.49999999999983
 70
   192
  0
VERTEX
  5
17FA
  8
0
 10
323.650635094611
 20
700.5
 30
69.49999999999983
 70
   192
  0
VERTEX
  5
17FB
  8
0
 10
314.5000000000001
 20
700.5
 30
78.6506350946108
 70
   192
  0
VERTEX
  5
17FC
  8
0
 10
314.5000000000001
 20
-0.5
 30
78.6506350946108
 70
   192
  0
VERTEX
  5
17FD
  8
0
 10
327.0000000000001
 20
-0.5
 30
56.99999999999983
 70
   192
  0
VERTEX
  5
17FE
  8
0
 10
327.0000000000001
 20
700.5
 30
56.99999999999983
 70
   192
  0
VERTEX
  5
17FF
  8
0
 10
302.0000000000001
 20
700.5
 30
81.99999999999983
 70
   192
  0
VERTEX
  5
1800
  8
0
 10
302.0000000000001
 20
-0.5
 30
81.99999999999984
 70
   192
  0
VERTEX
  5
1801
  8
0
 10
0.0
 20
0.0
 30
0.0
 70
   128
 71
     1
 72
     2
 73
    -3
  0
VERTEX
  5
1802
  8
0
 10
0.0
 20
0.0
 30
0.0
 70
   128
 71
    -1
 72
     3
 73
     4
  0
VERTEX
  5
1803
  8
0
 10
0.0
 20
0.0
 30
0.0
 70
   128
 71
     5
 72
     6
 73
    -2
  0
VERTEX
  5
1804
  8
0
 10
0.0
 20
0.0
 30
0.0
 70
   128
 71
    -5
 72
     2
 73
     1
  0
VERTEX
  5
1805
  8
0
 10
0.0
 20
0.0
 30
0.0
 70
   128
 71
     4
 72
     3
 73
    -7
  0
VERTEX
  5
1806
  8
0
 10
0.0
 20
0.0
 30
0.0
 70
   128
 71
    -4
 72
     7
 73
     8
  0
SEQEND
  5
1DF3
  8
0
  0
POLYLINE
  5
1807
  8
0
 66
     1
 10
0.0
 20
0.0
 30
0.0
 70
    64
 71
     4
 72
     2
  0
VERTEX
  5
1808
  8
0
 10
327.0
 20
-0.5
 30
56.99999999999983
 70
   192
  0
VERTEX
  5
1809
  8
0
 10
327.0000000000001
 20
-0.5
 30
-89.00000000000013
 70
   192
  0
VERTEX
  5
180A
  8
0
 10
327.0000000000001
 20
700.5
 30
-89.00000000000013
 70
   192
  0
VERTEX
  5
180B
  8
0
 10
327.0
 20
700.5
 30
56.99999999999983
 70
   192
  0
VERTEX
  5
180C
  8
0
 10
0.0
 20
0.0
 30
0.0
 70
   128
 71
     3
 72
     4
 73
    -1
  0
VERTEX
  5
180D
  8
0
 10
0.0
 20
0.0
 30
0.0
 70
   128
 71
     2
 72
    -3
 73
     1
  0
SEQEND
  5
1DF4
  8
0
  0
POLYLINE
  5
180E
  8
0
 66
     1
 10
0.0
 20
0.0
 30
0.0
 70
    64
 71
     6
 72
     4
  0
VERTEX
  5
180F
  8
0
 10
327.0000000000001
 20
700.5
 30
-89.00000000000014
 70
   192
  0
VERTEX
  5
1810
  8
0
 10
302.0000000000001
 20
700.5
 30
-89.00000000000013
 70
   192
  0
VERTEX
  5
1811
  8
0
 10
302.0000000000001
 20
700.5
 30
81.99999999999984
 70
   192
  0
VERTEX
  5
1812
  8
0
 10
314.5000000000001
 20
700.5
 30
78.6506350946108
 70
   192
  0
VERTEX
  5
1813
  8
0
 10
323.650635094611
 20
700.5
 30
69.49999999999983
 70
   192
  0
VERTEX
  5
1814
  8
0
 10
327.0000000000001
 20
700.5
 30
56.99999999999983
 70
   192
  0
VERTEX
  5
1815
  8
0
 10
0.0
 20
0.0
 30
0.0
 70
   128
 71
     5
 72
     6
 73
    -1
  0
VERTEX
  5
1816
  8
0
 10
0.0
 20
0.0
 30
0.0
 70
   128
 71
     4
 72
    -5
 73
    -1
  0
VERTEX
  5
1817
  8
0
 10
0.0
 20
0.0
 30
0.0
 70
   128
 71
     3
 72
    -4
 73
    -1
  0
VERTEX
  5
1818
  8
0
 10
0.0
 20
0.0
 30
0.0
 70
   128
 71
     2
 72
    -3
 73
     1
  0
SEQEND
  5
1DF5
  8
0
  0
POLYLINE
  5
1819
  8
0
 66
     1
 10
0.0
 20
0.0
 30
0.0
 70
    64
 71
     6
 72
     4
  0
VERTEX
  5
181A
  8
0
 10
302.0000000000001
 20
-0.5
 30
-89.00000000000011
 70
   192
  0
VERTEX
  5
181B
  8
0
 10
302.0000000000001
 20
-0.5
 30
81.99999999999983
 70
   192
  0
VERTEX
  5
181C
  8
0
 10
314.5000000000001
 20
-0.5
 30
78.6506350946108
 70
   192
  0
VERTEX
  5
181D
  8
0
 10
323.650635094611
 20
-0.5
 30
69.49999999999983
 70
   192
  0
VERTEX
  5
181E
  8
0
 10
327.0
 20
-0.5
 30
56.99999999999983
 70
   192
  0
VERTEX
  5
181F
  8
0
 10
327.0000000000001
 20
-0.5
 30
-89.00000000000014
 70
   192
  0
VERTEX
  5
1820
  8
0
 10
0.0
 20
0.0
 30
0.0
 70
   128
 71
     1
 72
     6
 73
    -5
  0
VERTEX
  5
1821
  8
0
 10
0.0
 20
0.0
 30
0.0
 70
   128
 71
    -1
 72
     5
 73
    -4
  0
VERTEX
  5
1822
  8
0
 10
0.0
 20
0.0
 30
0.0
 70
   128
 71
    -1
 72
     4
 73
    -3
  0
VERTEX
  5
1823
  8
0
 10
0.0
 20
0.0
 30
0.0
 70
   128
 71
    -1
 72
     3
 73
     2
  0
SEQEND
  5
1DF6
  8
0
  0
ENDBLK
  5
1DF0
  8
0
  0
BLOCK
  8
0
  2
*X6
 70
     1
 10
0.0
 20
0.0
 30
0.0
  3
*X6
  1

  0
POLYLINE
  5
1825
  8
0
 66
     1
 10
0.0
 20
0.0
 30
0.0
 70
    64
 71
     4
 72
     2
  0
VERTEX
  5
1826
  8
0
 10
284.0000000000001
 20
682.0
 30
-61.99999999999994
 70
   192
  0
VERTEX
  5
1827
  8
0
 10
284.0000000000001
 20
682.0
 30
62.00000000000006
 70
   192
  0
VERTEX
  5
1828
  8
0
 10
284.0000000000001
 20
700.0000000000001
 30
62.00000000000006
 70
   192
  0
VERTEX
  5
1829
  8
0
 10
284.0000000000001
 20
700.0000000000001
 30
-61.99999999999994
 70
   192
  0
VERTEX
  5
182A
  8
0
 10
0.0
 20
0.0
 30
0.0
 70
   128
 71
     1
 72
     4
 73
    -3
  0
VERTEX
  5
182B
  8
0
 10
0.0
 20
0.0
 30
0.0
 70
   128
 71
    -1
 72
     3
 73
     2
  0
SEQEND
  5
1DF9
  8
0
  0
POLYLINE
  5
182C
  8
0
 66
     1
 10
0.0
 20
0.0
 30
0.0
 70
    64
 71
     4
 72
     2
  0
VERTEX
  5
182D
  8
0
 10
-284.0000000000001
 20
700.0000000000001
 30
62.00000000000006
 70
   192
  0
VERTEX
  5
182E
  8
0
 10
-284.0000000000002
 20
700.0000000000001
 30
-61.99999999999994
 70
   192
  0
VERTEX
  5
182F
  8
0
 10
284.0000000000001
 20
700.0000000000001
 30
-61.99999999999994
 70
   192
  0
VERTEX
  5
1830
  8
0
 10
284.0000000000001
 20
700.0000000000001
 30
62.00000000000006
 70
   192
  0
VERTEX
  5
1831
  8
0
 10
0.0
 20
0.0
 30
0.0
 70
   128
 71
     1
 72
     4
 73
    -3
  0
VERTEX
  5
1832
  8
0
 10
0.0
 20
0.0
 30
0.0
 70
   128
 71
    -1
 72
     3
 73
     2
  0
SEQEND
  5
1DFA
  8
0
  0
POLYLINE
  5
1833
  8
0
 66
     1
 10
0.0
 20
0.0
 30
0.0
 70
    64
 71
     4
 72
     2
  0
VERTEX
  5
1834
  8
0
 10
-284.0000000000001
 20
682.0
 30
62.00000000000006
 70
   192
  0
VERTEX
  5
1835
  8
0
 10
-284.0000000000002
 20
700.0000000000001
 30
62.00000000000006
 70
   192
  0
VERTEX
  5
1836
  8
0
 10
284.0000000000001
 20
700.0000000000001
 30
62.00000000000006
 70
   192
  0
VERTEX
  5
1837
  8
0
 10
284.0000000000001
 20
682.0
 30
62.00000000000006
 70
   192
  0
VERTEX
  5
1838
  8
0
 10
0.0
 20
0.0
 30
0.0
 70
   128
 71
     1
 72
     4
 73
    -3
  0
VERTEX
  5
1839
  8
0
 10
0.0
 20
0.0
 30
0.0
 70
   128
 71
    -1
 72
     3
 73
     2
  0
SEQEND
  5
1DFB
  8
0
  0
POLYLINE
  5
183A
  8
0
 66
     1
 10
0.0
 20
0.0
 30
0.0
 70
    64
 71
     4
 72
     2
  0
VERTEX
  5
183B
  8
0
 10
-284.0000000000001
 20
700.0000000000001
 30
-61.99999999999994
 70
   192
  0
VERTEX
  5
183C
  8
0
 10
-284.0000000000002
 20
682.0
 30
-61.99999999999994
 70
   192
  0
VERTEX
  5
183D
  8
0
 10
284.0000000000001
 20
682.0
 30
-61.99999999999994
 70
   192
  0
VERTEX
  5
183E
  8
0
 10
284.0000000000001
 20
700.0000000000001
 30
-61.99999999999994
 70
   192
  0
VERTEX
  5
183F
  8
0
 10
0.0
 20
0.0
 30
0.0
 70
   128
 71
     1
 72
     4
 73
    -3
  0
VERTEX
  5
1840
  8
0
 10
0.0
 20
0.0
 30
0.0
 70
   128
 71
    -1
 72
     3
 73
     2
  0
SEQEND
  5
1DFC
  8
0
  0
POLYLINE
  5
1841
  8
0
 66
     1
 10
0.0
 20
0.0
 30
0.0
 70
    64
 71
     4
 72
     2
  0
VERTEX
  5
1842
  8
0
 10
-284.0000000000001
 20
682.0
 30
62.00000000000006
 70
   192
  0
VERTEX
  5
1843
  8
0
 10
-284.0000000000001
 20
682.0
 30
-61.99999999999994
 70
   192
  0
VERTEX
  5
1844
  8
0
 10
-284.0000000000001
 20
700.0000000000001
 30
-61.99999999999994
 70
   192
  0
VERTEX
  5
1845
  8
0
 10
-284.0000000000001
 20
700.0000000000001
 30
62.00000000000006
 70
   192
  0
VERTEX
  5
1846
  8
0
 10
0.0
 20
0.0
 30
0.0
 70
   128
 71
     1
 72
     4
 73
    -3
  0
VERTEX
  5
1847
  8
0
 10
0.0
 20
0.0
 30
0.0
 70
   128
 71
    -1
 72
     3
 73
     2
  0
SEQEND
  5
1DFD
  8
0
  0
POLYLINE
  5
1848
  8
0
 66
     1
 10
0.0
 20
0.0
 30
0.0
 70
    64
 71
     4
 72
     2
  0
VERTEX
  5
1849
  8
0
 10
-284.0000000000001
 20
682.0
 30
-61.99999999999994
 70
   192
  0
VERTEX
  5
184A
  8
0
 10
-284.0000000000002
 20
682.0
 30
62.00000000000006
 70
   192
  0
VERTEX
  5
184B
  8
0
 10
284.0000000000001
 20
682.0
 30
62.00000000000006
 70
   192
  0
VERTEX
  5
184C
  8
0
 10
284.0000000000001
 20
682.0
 30
-61.99999999999994
 70
   192
  0
VERTEX
  5
184D
  8
0
 10
0.0
 20
0.0
 30
0.0
 70
   128
 71
     1
 72
     4
 73
    -3
  0
VERTEX
  5
184E
  8
0
 10
0.0
 20
0.0
 30
0.0
 70
   128
 71
    -1
 72
     3
 73
     2
  0
SEQEND
  5
1DFE
  8
0
  0
ENDBLK
  5
1DF8
  8
0
  0
BLOCK
  8
0
  2
*X7
 70
     1
 10
0.0
 20
0.0
 30
0.0
  3
*X7
  1

  0
POLYLINE
  5
1850
  8
0
 66
     1
 10
0.0
 20
0.0
 30
0.0
 70
    64
 71
     4
 72
     2
  0
VERTEX
  5
1851
  8
0
 10
-284.0000000000001
 20
18.0
 30
-62.00000000000007
 70
   192
  0
VERTEX
  5
1852
  8
0
 10
-284.0000000000001
 20
138.0
 30
-62.00000000000007
 70
   192
  0
VERTEX
  5
1853
  8
0
 10
-284.0000000000001
 20
138.0
 30
-44.00000000000006
 70
   192
  0
VERTEX
  5
1854
  8
0
 10
-284.0000000000001
 20
18.0
 30
-44.00000000000006
 70
   192
  0
VERTEX
  5
1855
  8
0
 10
0.0
 20
0.0
 30
0.0
 70
   128
 71
     1
 72
     4
 73
    -3
  0
VERTEX
  5
1856
  8
0
 10
0.0
 20
0.0
 30
0.0
 70
   128
 71
    -1
 72
     3
 73
     2
  0
SEQEND
  5
1E01
  8
0
  0
POLYLINE
  5
1857
  8
0
 66
     1
 10
0.0
 20
0.0
 30
0.0
 70
    64
 71
     4
 72
     2
  0
VERTEX
  5
1858
  8
0
 10
-284.0000000000001
 20
18.0
 30
-44.00000000000006
 70
   192
  0
VERTEX
  5
1859
  8
0
 10
-284.0000000000001
 20
138.0
 30
-44.00000000000006
 70
   192
  0
VERTEX
  5
185A
  8
0
 10
284.0000000000001
 20
138.0
 30
-44.00000000000006
 70
   192
  0
VERTEX
  5
185B
  8
0
 10
284.0000000000002
 20
18.0
 30
-44.00000000000006
 70
   192
  0
VERTEX
  5
185C
  8
0
 10
0.0
 20
0.0
 30
0.0
 70
   128
 71
     1
 72
     4
 73
    -3
  0
VERTEX
  5
185D
  8
0
 10
0.0
 20
0.0
 30
0.0
 70
   128
 71
    -1
 72
     3
 73
     2
  0
SEQEND
  5
1E02
  8
0
  0
POLYLINE
  5
185E
  8
0
 66
     1
 10
0.0
 20
0.0
 30
0.0
 70
    64
 71
     4
 72
     2
  0
VERTEX
  5
185F
  8
0
 10
284.0000000000001
 20
18.0
 30
-44.00000000000006
 70
   192
  0
VERTEX
  5
1860
  8
0
 10
284.0000000000001
 20
138.0
 30
-44.00000000000006
 70
   192
  0
VERTEX
  5
1861
  8
0
 10
284.0000000000001
 20
138.0
 30
-62.00000000000007
 70
   192
  0
VERTEX
  5
1862
  8
0
 10
284.0000000000001
 20
18.0
 30
-62.00000000000007
 70
   192
  0
VERTEX
  5
1863
  8
0
 10
0.0
 20
0.0
 30
0.0
 70
   128
 71
     1
 72
     4
 73
    -3
  0
VERTEX
  5
1864
  8
0
 10
0.0
 20
0.0
 30
0.0
 70
   128
 71
    -1
 72
     3
 73
     2
  0
SEQEND
  5
1E03
  8
0
  0
POLYLINE
  5
1865
  8
0
 66
     1
 10
0.0
 20
0.0
 30
0.0
 70
    64
 71
     4
 72
     2
  0
VERTEX
  5
1866
  8
0
 10
284.0000000000001
 20
18.0
 30
-62.00000000000007
 70
   192
  0
VERTEX
  5
1867
  8
0
 10
284.0000000000002
 20
138.0
 30
-62.00000000000007
 70
   192
  0
VERTEX
  5
1868
  8
0
 10
-284.0000000000001
 20
138.0
 30
-62.00000000000007
 70
   192
  0
VERTEX
  5
1869
  8
0
 10
-284.0000000000001
 20
18.0
 30
-62.00000000000007
 70
   192
  0
VERTEX
  5
186A
  8
0
 10
0.0
 20
0.0
 30
0.0
 70
   128
 71
     1
 72
     4
 73
    -3
  0
VERTEX
  5
186B
  8
0
 10
0.0
 20
0.0
 30
0.0
 70
   128
 71
    -1
 72
     3
 73
     2
  0
SEQEND
  5
1E04
  8
0
  0
POLYLINE
  5
186C
  8
0
 66
     1
 10
0.0
 20
0.0
 30
0.0
 70
    64
 71
     4
 72
     2
  0
VERTEX
  5
186D
  8
0
 10
-284.0000000000001
 20
138.0
 30
-62.00000000000007
 70
   192
  0
VERTEX
  5
186E
  8
0
 10
-284.0000000000001
 20
138.0
 30
-44.00000000000006
 70
   192
  0
VERTEX
  5
186F
  8
0
 10
284.0000000000002
 20
138.0
 30
-44.00000000000006
 70
   192
  0
VERTEX
  5
1870
  8
0
 10
284.0000000000001
 20
138.0
 30
-62.00000000000007
 70
   192
  0
VERTEX
  5
1871
  8
0
 10
0.0
 20
0.0
 30
0.0
 70
   128
 71
     3
 72
     4
 73
    -1
  0
VERTEX
  5
1872
  8
0
 10
0.0
 20
0.0
 30
0.0
 70
   128
 71
     2
 72
    -3
 73
     1
  0
SEQEND
  5
1E05
  8
0
  0
POLYLINE
  5
1873
  8
0
 66
     1
 10
0.0
 20
0.0
 30
0.0
 70
    64
 71
     4
 72
     2
  0
VERTEX
  5
1874
  8
0
 10
-284.0000000000001
 20
18.0
 30
-44.00000000000006
 70
   192
  0
VERTEX
  5
1875
  8
0
 10
284.0000000000001
 20
18.0
 30
-44.00000000000006
 70
   192
  0
VERTEX
  5
1876
  8
0
 10
284.0000000000002
 20
18.0
 30
-62.00000000000007
 70
   192
  0
VERTEX
  5
1877
  8
0
 10
-284.0000000000001
 20
18.0
 30
-62.00000000000007
 70
   192
  0
VERTEX
  5
1878
  8
0
 10
0.0
 20
0.0
 30
0.0
 70
   128
 71
     1
 72
     4
 73
    -3
  0
VERTEX
  5
1879
  8
0
 10
0.0
 20
0.0
 30
0.0
 70
   128
 71
    -1
 72
     3
 73
     2
  0
SEQEND
  5
1E06
  8
0
  0
ENDBLK
  5
1E00
  8
0
  0
BLOCK
  8
0
  2
*X8
 70
     1
 10
0.0
 20
0.0
 30
0.0
  3
*X8
  1

  0
POLYLINE
  5
187B
  8
0
 66
     1
 10
0.0
 20
0.0
 30
0.0
 70
    64
 71
     4
 72
     2
  0
VERTEX
  5
187C
  8
0
 10
-284.0000000000001
 20
700.5
 30
-65.00000000000003
 70
   192
  0
VERTEX
  5
187D
  8
0
 10
-284.0000000000001
 20
700.5
 30
-62.00000000000008
 70
   192
  0
VERTEX
  5
187E
  8
0
 10
284.0000000000001
 20
700.5
 30
-61.99999999999996
 70
   192
  0
VERTEX
  5
187F
  8
0
 10
284.0000000000001
 20
700.5
 30
-65.00000000000009
 70
   192
  0
VERTEX
  5
1880
  8
0
 10
0.0
 20
0.0
 30
0.0
 70
   128
 71
     3
 72
     4
 73
    -1
  0
VERTEX
  5
1881
  8
0
 10
0.0
 20
0.0
 30
0.0
 70
   128
 71
     2
 72
    -3
 73
     1
  0
SEQEND
  5
1E09
  8
0
  0
POLYLINE
  5
1882
  8
0
 66
     1
 10
0.0
 20
0.0
 30
0.0
 70
    64
 71
     4
 72
     2
  0
VERTEX
  5
1883
  8
0
 10
-284.0000000000001
 20
-0.5
 30
-62.00000000000008
 70
   192
  0
VERTEX
  5
1884
  8
0
 10
-284.0000000000001
 20
-0.5
 30
-65.00000000000003
 70
   192
  0
VERTEX
  5
1885
  8
0
 10
284.0000000000001
 20
-0.5
 30
-65.00000000000009
 70
   192
  0
VERTEX
  5
1886
  8
0
 10
284.0000000000001
 20
-0.5
 30
-61.99999999999996
 70
   192
  0
VERTEX
  5
1887
  8
0
 10
0.0
 20
0.0
 30
0.0
 70
   128
 71
     3
 72
     4
 73
    -1
  0
VERTEX
  5
1888
  8
0
 10
0.0
 20
0.0
 30
0.0
 70
   128
 71
     2
 72
    -3
 73
     1
  0
SEQEND
  5
1E0A
  8
0
  0
POLYLINE
  5
1889
  8
0
 66
     1
 10
0.0
 20
0.0
 30
0.0
 70
    64
 71
     4
 72
     2
  0
VERTEX
  5
188A
  8
0
 10
-284.0000000000001
 20
-0.5
 30
-65.00000000000003
 70
   192
  0
VERTEX
  5
188B
  8
0
 10
-284.0000000000001
 20
700.5
 30
-65.00000000000003
 70
   192
  0
VERTEX
  5
188C
  8
0
 10
284.0000000000001
 20
700.5
 30
-65.00000000000009
 70
   192
  0
VERTEX
  5
188D
  8
0
 10
284.0000000000001
 20
-0.5
 30
-65.00000000000009
 70
   192
  0
VERTEX
  5
188E
  8
0
 10
0.0
 20
0.0
 30
0.0
 70
   128
 71
     3
 72
     4
 73
    -1
  0
VERTEX
  5
188F
  8
0
 10
0.0
 20
0.0
 30
0.0
 70
   128
 71
     2
 72
    -3
 73
     1
  0
SEQEND
  5
1E0B
  8
0
  0
POLYLINE
  5
1890
  8
0
 66
     1
 10
0.0
 20
0.0
 30
0.0
 70
    64
 71
     4
 72
     2
  0
VERTEX
  5
1891
  8
0
 10
284.0000000000001
 20
700.5000000000002
 30
-65.00000000000009
 70
   192
  0
VERTEX
  5
1892
  8
0
 10
284.0000000000001
 20
-0.5
 30
-65.00000000000009
 70
   192
  0
VERTEX
  5
1893
  8
0
 10
284.0000000000001
 20
-0.5
 30
-61.99999999999996
 70
   192
  0
VERTEX
  5
1894
  8
0
 10
284.0000000000001
 20
700.5
 30
-61.99999999999996
 70
   192
  0
VERTEX
  5
1895
  8
0
 10
0.0
 20
0.0
 30
0.0
 70
   128
 71
     1
 72
     4
 73
    -3
  0
VERTEX
  5
1896
  8
0
 10
0.0
 20
0.0
 30
0.0
 70
   128
 71
    -1
 72
     3
 73
     2
  0
SEQEND
  5
1E0C
  8
0
  0
POLYLINE
  5
1897
  8
0
 66
     1
 10
0.0
 20
0.0
 30
0.0
 70
    64
 71
     4
 72
     2
  0
VERTEX
  5
1898
  8
0
 10
284.0000000000001
 20
700.5
 30
-61.99999999999996
 70
   192
  0
VERTEX
  5
1899
  8
0
 10
284.0000000000001
 20
-0.5
 30
-61.99999999999996
 70
   192
  0
VERTEX
  5
189A
  8
0
 10
-284.0000000000001
 20
-0.5
 30
-62.00000000000007
 70
   192
  0
VERTEX
  5
189B
  8
0
 10
-284.0000000000001
 20
700.5
 30
-62.00000000000007
 70
   192
  0
VERTEX
  5
189C
  8
0
 10
0.0
 20
0.0
 30
0.0
 70
   128
 71
     1
 72
     4
 73
    -3
  0
VERTEX
  5
189D
  8
0
 10
0.0
 20
0.0
 30
0.0
 70
   128
 71
    -1
 72
     3
 73
     2
  0
SEQEND
  5
1E0D
  8
0
  0
POLYLINE
  5
189E
  8
0
 66
     1
 10
0.0
 20
0.0
 30
0.0
 70
    64
 71
     4
 72
     2
  0
VERTEX
  5
189F
  8
0
 10
-284.0000000000001
 20
-0.5
 30
-62.00000000000007
 70
   192
  0
VERTEX
  5
18A0
  8
0
 10
-284.0000000000001
 20
700.5
 30
-62.00000000000007
 70
   192
  0
VERTEX
  5
18A1
  8
0
 10
-284.0000000000001
 20
700.5
 30
-65.00000000000003
 70
   192
  0
VERTEX
  5
18A2
  8
0
 10
-284.0000000000001
 20
-0.5
 30
-65.00000000000003
 70
   192
  0
VERTEX
  5
18A3
  8
0
 10
0.0
 20
0.0
 30
0.0
 70
   128
 71
     3
 72
     4
 73
    -1
  0
VERTEX
  5
18A4
  8
0
 10
0.0
 20
0.0
 30
0.0
 70
   128
 71
     2
 72
    -3
 73
     1
  0
SEQEND
  5
1E0E
  8
0
  0
ENDBLK
  5
1E08
  8
0
  0
BLOCK
  8
0
  2
*X9
 70
     1
 10
0.0
 20
0.0
 30
0.0
  3
*X9
  1

  0
POLYLINE
  5
18A6
  8
0
 66
     1
 10
0.0
 20
0.0
 30
0.0
 70
    64
 71
    10
 72
     8
  0
VERTEX
  5
18A7
  8
0
 10
172.0
 20
102.9999999999999
 30
-39.00000000000007
 70
   192
  0
VERTEX
  5
18A8
  8
0
 10
176.0
 20
102.9999999999999
 30
-39.00000000000007
 70
   192
  0
VERTEX
  5
18A9
  8
0
 10
176.0
 20
102.9999999999999
 30
-42.00000000000007
 70
   192
  0
VERTEX
  5
18AA
  8
0
 10
172.0
 20
102.9999999999999
 30
-42.00000000000007
 70
   192
  0
VERTEX
  5
18AB
  8
0
 10
174.0
 20
104.9999999999999
 30
-42.00000000000007
 70
   192
  0
VERTEX
  5
18AC
  8
0
 10
174.0
 20
104.9999999999999
 30
-39.00000000000007
 70
   192
  0
VERTEX
  5
18AD
  8
0
 10
172.5857864376269
 20
104.414213562373
 30
-42.00000000000007
 70
   192
  0
VERTEX
  5
18AE
  8
0
 10
172.5857864376269
 20
104.414213562373
 30
-39.00000000000007
 70
   192
  0
VERTEX
  5
18AF
  8
0
 10
175.4142135623731
 20
104.414213562373
 30
-42.00000000000007
 70
   192
  0
VERTEX
  5
18B0
  8
0
 10
175.4142135623731
 20
104.414213562373
 30
-39.00000000000007
 70
   192
  0
VERTEX
  5
18B1
  8
0
 10
0.0
 20
0.0
 30
0.0
 70
   128
 71
     7
 72
     4
 73
    -1
  0
VERTEX
  5
18B2
  8
0
 10
0.0
 20
0.0
 30
0.0
 70
   128
 71
    -7
 72
     1
 73
     8
  0
VERTEX
  5
18B3
  8
0
 10
0.0
 20
0.0
 30
0.0
 70
   128
 71
     6
 72
     5
 73
    -7
  0
VERTEX
  5
18B4
  8
0
 10
0.0
 20
0.0
 30
0.0
 70
   128
 71
    -6
 72
     7
 73
     8
  0
VERTEX
  5
18B5
  8
0
 10
0.0
 20
0.0
 30
0.0
 70
   128
 71
    10
 72
     9
 73
    -5
  0
VERTEX
  5
18B6
  8
0
 10
0.0
 20
0.0
 30
0.0
 70
   128
 71
   -10
 72
     5
 73
     6
  0
VERTEX
  5
18B7
  8
0
 10
0.0
 20
0.0
 30
0.0
 70
   128
 71
     2
 72
     3
 73
    -9
  0
VERTEX
  5
18B8
  8
0
 10
0.0
 20
0.0
 30
0.0
 70
   128
 71
    -2
 72
     9
 73
    10
  0
SEQEND
  5
1E11
  8
0
  0
POLYLINE
  5
18B9
  8
0
 66
     1
 10
0.0
 20
0.0
 30
0.0
 70
    64
 71
    10
 72
     8
  0
VERTEX
  5
18BA
  8
0
 10
161.0
 20
87.99999999999994
 30
-43.00000000000007
 70
   192
  0
VERTEX
  5
18BB
  8
0
 10
167.0
 20
87.99999999999994
 30
-43.00000000000007
 70
   192
  0
VERTEX
  5
18BC
  8
0
 10
167.0
 20
87.99999999999994
 30
-42.00000000000007
 70
   192
  0
VERTEX
  5
18BD
  8
0
 10
161.0
 20
87.99999999999994
 30
-42.00000000000007
 70
   192
  0
VERTEX
  5
18BE
  8
0
 10
164.0
 20
84.99999999999994
 30
-42.00000000000007
 70
   192
  0
VERTEX
  5
18BF
  8
0
 10
164.0
 20
84.99999999999994
 30
-43.00000000000007
 70
   192
  0
VERTEX
  5
18C0
  8
0
 10
161.8786796564404
 20
85.8786796564403
 30
-42.00000000000007
 70
   192
  0
VERTEX
  5
18C1
  8
0
 10
161.8786796564404
 20
85.8786796564403
 30
-43.00000000000007
 70
   192
  0
VERTEX
  5
18C2
  8
0
 10
166.1213203435596
 20
85.8786796564403
 30
-42.00000000000007
 70
   192
  0
VERTEX
  5
18C3
  8
0
 10
166.1213203435596
 20
85.8786796564403
 30
-43.00000000000007
 70
   192
  0
VERTEX
  5
18C4
  8
0
 10
0.0
 20
0.0
 30
0.0
 70
   128
 71
     8
 72
     1
 73
    -4
  0
VERTEX
  5
18C5
  8
0
 10
0.0
 20
0.0
 30
0.0
 70
   128
 71
     7
 72
    -8
 73
     4
  0
VERTEX
  5
18C6
  8
0
 10
0.0
 20
0.0
 30
0.0
 70
   128
 71
     6
 72
     8
 73
    -7
  0
VERTEX
  5
18C7
  8
0
 10
0.0
 20
0.0
 30
0.0
 70
   128
 71
     5
 72
    -6
 73
     7
  0
VERTEX
  5
18C8
  8
0
 10
0.0
 20
0.0
 30
0.0
 70
   128
 71
    10
 72
     6
 73
    -5
  0
VERTEX
  5
18C9
  8
0
 10
0.0
 20
0.0
 30
0.0
 70
   128
 71
     9
 72
   -10
 73
     5
  0
VERTEX
  5
18CA
  8
0
 10
0.0
 20
0.0
 30
0.0
 70
   128
 71
     2
 72
    10
 73
    -9
  0
VERTEX
  5
18CB
  8
0
 10
0.0
 20
0.0
 30
0.0
 70
   128
 71
     3
 72
    -2
 73
     9
  0
SEQEND
  5
1E12
  8
0
  0
POLYLINE
  5
18CC
  8
0
 66
     1
 10
0.0
 20
0.0
 30
0.0
 70
    64
 71
    10
 72
     8
  0
VERTEX
  5
18CD
  8
0
 10
181.0
 20
87.99999999999994
 30
-43.00000000000007
 70
   192
  0
VERTEX
  5
18CE
  8
0
 10
187.0
 20
87.99999999999994
 30
-43.00000000000007
 70
   192
  0
VERTEX
  5
18CF
  8
0
 10
187.0
 20
87.99999999999994
 30
-42.00000000000007
 70
   192
  0
VERTEX
  5
18D0
  8
0
 10
181.0
 20
87.99999999999994
 30
-42.00000000000007
 70
   192
  0
VERTEX
  5
18D1
  8
0
 10
184.0
 20
84.99999999999994
 30
-42.00000000000007
 70
   192
  0
VERTEX
  5
18D2
  8
0
 10
184.0
 20
84.99999999999994
 30
-43.00000000000007
 70
   192
  0
VERTEX
  5
18D3
  8
0
 10
181.8786796564404
 20
85.8786796564403
 30
-42.00000000000007
 70
   192
  0
VERTEX
  5
18D4
  8
0
 10
181.8786796564404
 20
85.8786796564403
 30
-43.00000000000007
 70
   192
  0
VERTEX
  5
18D5
  8
0
 10
186.1213203435597
 20
85.8786796564403
 30
-42.00000000000007
 70
   192
  0
VERTEX
  5
18D6
  8
0
 10
186.1213203435597
 20
85.8786796564403
 30
-43.00000000000007
 70
   192
  0
VERTEX
  5
18D7
  8
0
 10
0.0
 20
0.0
 30
0.0
 70
   128
 71
     8
 72
     1
 73
    -4
  0
VERTEX
  5
18D8
  8
0
 10
0.0
 20
0.0
 30
0.0
 70
   128
 71
     7
 72
    -8
 73
     4
  0
VERTEX
  5
18D9
  8
0
 10
0.0
 20
0.0
 30
0.0
 70
   128
 71
     6
 72
     8
 73
    -7
  0
VERTEX
  5
18DA
  8
0
 10
0.0
 20
0.0
 30
0.0
 70
   128
 71
     5
 72
    -6
 73
     7
  0
VERTEX
  5
18DB
  8
0
 10
0.0
 20
0.0
 30
0.0
 70
   128
 71
    10
 72
     6
 73
    -5
  0
VERTEX
  5
18DC
  8
0
 10
0.0
 20
0.0
 30
0.0
 70
   128
 71
     9
 72
   -10
 73
     5
  0
VERTEX
  5
18DD
  8
0
 10
0.0
 20
0.0
 30
0.0
 70
   128
 71
     2
 72
    10
 73
    -9
  0
VERTEX
  5
18DE
  8
0
 10
0.0
 20
0.0
 30
0.0
 70
   128
 71
     3
 72
    -2
 73
     9
  0
SEQEND
  5
1E13
  8
0
  0
POLYLINE
  5
18DF
  8
0
 66
     1
 10
0.0
 20
0.0
 30
0.0
 70
    64
 71
    10
 72
     8
  0
VERTEX
  5
18E0
  8
0
 10
171.5
 20
87.99999999999994
 30
-43.00000000000007
 70
   192
  0
VERTEX
  5
18E1
  8
0
 10
176.5
 20
87.99999999999994
 30
-43.00000000000007
 70
   192
  0
VERTEX
  5
18E2
  8
0
 10
176.5
 20
87.99999999999994
 30
-42.00000000000007
 70
   192
  0
VERTEX
  5
18E3
  8
0
 10
171.5
 20
87.99999999999994
 30
-42.00000000000007
 70
   192
  0
VERTEX
  5
18E4
  8
0
 10
174.0
 20
85.49999999999994
 30
-42.00000000000007
 70
   192
  0
VERTEX
  5
18E5
  8
0
 10
174.0
 20
85.49999999999994
 30
-43.00000000000007
 70
   192
  0
VERTEX
  5
18E6
  8
0
 10
172.2322330470336
 20
86.23223304703357
 30
-42.00000000000007
 70
   192
  0
VERTEX
  5
18E7
  8
0
 10
172.2322330470336
 20
86.23223304703357
 30
-43.00000000000007
 70
   192
  0
VERTEX
  5
18E8
  8
0
 10
175.7677669529664
 20
86.23223304703357
 30
-42.00000000000007
 70
   192
  0
VERTEX
  5
18E9
  8
0
 10
175.7677669529664
 20
86.23223304703357
 30
-43.00000000000007
 70
   192
  0
VERTEX
  5
18EA
  8
0
 10
0.0
 20
0.0
 30
0.0
 70
   128
 71
     8
 72
     1
 73
    -4
  0
VERTEX
  5
18EB
  8
0
 10
0.0
 20
0.0
 30
0.0
 70
   128
 71
     7
 72
    -8
 73
     4
  0
VERTEX
  5
18EC
  8
0
 10
0.0
 20
0.0
 30
0.0
 70
   128
 71
     6
 72
     8
 73
    -7
  0
VERTEX
  5
18ED
  8
0
 10
0.0
 20
0.0
 30
0.0
 70
   128
 71
     5
 72
    -6
 73
     7
  0
VERTEX
  5
18EE
  8
0
 10
0.0
 20
0.0
 30
0.0
 70
   128
 71
    10
 72
     6
 73
    -5
  0
VERTEX
  5
18EF
  8
0
 10
0.0
 20
0.0
 30
0.0
 70
   128
 71
     9
 72
   -10
 73
     5
  0
VERTEX
  5
18F0
  8
0
 10
0.0
 20
0.0
 30
0.0
 70
   128
 71
     2
 72
    10
 73
    -9
  0
VERTEX
  5
18F1
  8
0
 10
0.0
 20
0.0
 30
0.0
 70
   128
 71
     3
 72
    -2
 73
     9
  0
SEQEND
  5
1E14
  8
0
  0
POLYLINE
  5
18F2
  8
0
 66
     1
 10
0.0
 20
0.0
 30
0.0
 70
    64
 71
    12
 72
    10
  0
VERTEX
  5
18F3
  8
0
 10
192.2028823734364
 20
101.2251681765806
 30
-44.00000000000006
 70
   192
  0
VERTEX
  5
18F4
  8
0
 10
196.5
 20
87.99999999999994
 30
-44.00000000000006
 70
   192
  0
VERTEX
  5
18F5
  8
0
 10
196.5
 20
87.99999999999994
 30
-74.00000000000007
 70
   192
  0
VERTEX
  5
18F6
  8
0
 10
192.2028823734364
 20
101.2251681765806
 30
-74.00000000000007
 70
   192
  0
VERTEX
  5
18F7
  8
0
 10
155.7971176265637
 20
101.2251681765806
 30
-74.00000000000007
 70
   192
  0
VERTEX
  5
18F8
  8
0
 10
151.5
 20
87.99999999999994
 30
-74.00000000000007
 70
   192
  0
VERTEX
  5
18F9
  8
0
 10
151.5
 20
87.99999999999994
 30
-44.00000000000006
 70
   192
  0
VERTEX
  5
18FA
  8
0
 10
155.7971176265637
 20
101.2251681765806
 30
-44.00000000000006
 70
   192
  0
VERTEX
  5
18FB
  8
0
 10
180.9528823734364
 20
109.3987716166409
 30
-44.00000000000006
 70
   192
  0
VERTEX
  5
18FC
  8
0
 10
180.9528823734364
 20
109.3987716166409
 30
-74.00000000000007
 70
   192
  0
VERTEX
  5
18FD
  8
0
 10
167.0471176265637
 20
109.3987716166409
 30
-74.00000000000007
 70
   192
  0
VERTEX
  5
18FE
  8
0
 10
167.0471176265637
 20
109.3987716166409
 30
-44.00000000000006
 70
   192
  0
VERTEX
  5
18FF
  8
0
 10
0.0
 20
0.0
 30
0.0
 70
   128
 71
     1
 72
     2
 73
    -3
  0
VERTEX
  5
1900
  8
0
 10
0.0
 20
0.0
 30
0.0
 70
   128
 71
    -1
 72
     3
 73
     4
  0
VERTEX
  5
1901
  8
0
 10
0.0
 20
0.0
 30
0.0
 70
   128
 71
     5
 72
     6
 73
    -7
  0
VERTEX
  5
1902
  8
0
 10
0.0
 20
0.0
 30
0.0
 70
   128
 71
    -5
 72
     7
 73
     8
  0
VERTEX
  5
1903
  8
0
 10
0.0
 20
0.0
 30
0.0
 70
   128
 71
     9
 72
    10
 73
   -11
  0
VERTEX
  5
1904
  8
0
 10
0.0
 20
0.0
 30
0.0
 70
   128
 71
    -9
 72
    11
 73
    12
  0
VERTEX
  5
1905
  8
0
 10
0.0
 20
0.0
 30
0.0
 70
   128
 71
     1
 72
     4
 73
   -10
  0
VERTEX
  5
1906
  8
0
 10
0.0
 20
0.0
 30
0.0
 70
   128
 71
    -1
 72
    10
 73
     9
  0
VERTEX
  5
1907
  8
0
 10
0.0
 20
0.0
 30
0.0
 70
   128
 71
    12
 72
    11
 73
    -5
  0
VERTEX
  5
1908
  8
0
 10
0.0
 20
0.0
 30
0.0
 70
   128
 71
   -12
 72
     5
 73
     8
  0
SEQEND
  5
1E15
  8
0
  0
POLYLINE
  5
1909
  8
0
 66
     1
 10
0.0
 20
0.0
 30
0.0
 70
    64
 71
    12
 72
    10
  0
VERTEX
  5
190A
  8
0
 10
151.5
 20
87.99999999999994
 30
-42.00000000000007
 70
   192
  0
VERTEX
  5
190B
  8
0
 10
151.5
 20
87.99999999999994
 30
-39.00000000000007
 70
   192
  0
VERTEX
  5
190C
  8
0
 10
155.7971176265637
 20
74.7748318234193
 30
-39.00000000000007
 70
   192
  0
VERTEX
  5
190D
  8
0
 10
155.7971176265637
 20
74.7748318234193
 30
-42.00000000000007
 70
   192
  0
VERTEX
  5
190E
  8
0
 10
196.5
 20
87.99999999999994
 30
-39.00000000000007
 70
   192
  0
VERTEX
  5
190F
  8
0
 10
196.5
 20
87.99999999999994
 30
-42.00000000000007
 70
   192
  0
VERTEX
  5
1910
  8
0
 10
192.2028823734364
 20
74.77483182341929
 30
-42.00000000000007
 70
   192
  0
VERTEX
  5
1911
  8
0
 10
192.2028823734364
 20
74.77483182341929
 30
-39.00000000000007
 70
   192
  0
VERTEX
  5
1912
  8
0
 10
180.9528823734364
 20
66.60122838335899
 30
-42.00000000000007
 70
   192
  0
VERTEX
  5
1913
  8
0
 10
167.0471176265637
 20
66.601228383359
 30
-42.00000000000007
 70
   192
  0
VERTEX
  5
1914
  8
0
 10
167.0471176265637
 20
66.601228383359
 30
-39.00000000000007
 70
   192
  0
VERTEX
  5
1915
  8
0
 10
180.9528823734364
 20
66.60122838335899
 30
-39.00000000000007
 70
   192
  0
VERTEX
  5
1916
  8
0
 10
0.0
 20
0.0
 30
0.0
 70
   128
 71
     1
 72
     2
 73
    -3
  0
VERTEX
  5
1917
  8
0
 10
0.0
 20
0.0
 30
0.0
 70
   128
 71
     4
 72
    -1
 73
     3
  0
VERTEX
  5
1918
  8
0
 10
0.0
 20
0.0
 30
0.0
 70
   128
 71
     5
 72
     6
 73
    -7
  0
VERTEX
  5
1919
  8
0
 10
0.0
 20
0.0
 30
0.0
 70
   128
 71
     8
 72
    -5
 73
     7
  0
VERTEX
  5
191A
  8
0
 10
0.0
 20
0.0
 30
0.0
 70
   128
 71
     9
 72
    10
 73
   -11
  0
VERTEX
  5
191B
  8
0
 10
0.0
 20
0.0
 30
0.0
 70
   128
 71
    12
 72
    -9
 73
    11
  0
VERTEX
  5
191C
  8
0
 10
0.0
 20
0.0
 30
0.0
 70
   128
 71
    10
 72
     4
 73
    -3
  0
VERTEX
  5
191D
  8
0
 10
0.0
 20
0.0
 30
0.0
 70
   128
 71
    11
 72
   -10
 73
     3
  0
VERTEX
  5
191E
  8
0
 10
0.0
 20
0.0
 30
0.0
 70
   128
 71
     7
 72
     9
 73
   -12
  0
VERTEX
  5
191F
  8
0
 10
0.0
 20
0.0
 30
0.0
 70
   128
 71
     8
 72
    -7
 73
    12
  0
SEQEND
  5
1E16
  8
0
  0
POLYLINE
  5
1920
  8
0
 66
     1
 10
0.0
 20
0.0
 30
0.0
 70
    64
 71
     4
 72
     2
  0
VERTEX
  5
1921
  8
0
 10
144.0
 20
117.9999999999999
 30
-44.00000000000006
 70
   192
  0
VERTEX
  5
1922
  8
0
 10
144.0
 20
117.9999999999999
 30
-39.00000000000007
 70
   192
  0
VERTEX
  5
1923
  8
0
 10
144.0000000000001
 20
57.99999999999999
 30
-39.00000000000007
 70
   192
  0
VERTEX
  5
1924
  8
0
 10
144.0000000000001
 20
57.99999999999999
 30
-44.00000000000006
 70
   192
  0
VERTEX
  5
1925
  8
0
 10
0.0
 20
0.0
 30
0.0
 70
   128
 71
     1
 72
     4
 73
    -3
  0
VERTEX
  5
1926
  8
0
 10
0.0
 20
0.0
 30
0.0
 70
   128
 71
    -1
 72
     3
 73
     2
  0
SEQEND
  5
1E17
  8
0
  0
POLYLINE
  5
1927
  8
0
 66
     1
 10
0.0
 20
0.0
 30
0.0
 70
    64
 71
     4
 72
     2
  0
VERTEX
  5
1928
  8
0
 10
144.0000000000001
 20
57.99999999999999
 30
-44.00000000000006
 70
   192
  0
VERTEX
  5
1929
  8
0
 10
144.0000000000001
 20
57.99999999999999
 30
-39.00000000000007
 70
   192
  0
VERTEX
  5
192A
  8
0
 10
204.0
 20
58.00000000000002
 30
-39.00000000000007
 70
   192
  0
VERTEX
  5
192B
  8
0
 10
204.0
 20
58.00000000000002
 30
-44.00000000000006
 70
   192
  0
VERTEX
  5
192C
  8
0
 10
0.0
 20
0.0
 30
0.0
 70
   128
 71
     1
 72
     4
 73
    -3
  0
VERTEX
  5
192D
  8
0
 10
0.0
 20
0.0
 30
0.0
 70
   128
 71
    -1
 72
     3
 73
     2
  0
SEQEND
  5
1E18
  8
0
  0
POLYLINE
  5
192E
  8
0
 66
     1
 10
0.0
 20
0.0
 30
0.0
 70
    64
 71
     4
 72
     2
  0
VERTEX
  5
192F
  8
0
 10
204.0
 20
58.00000000000002
 30
-44.00000000000006
 70
   192
  0
VERTEX
  5
1930
  8
0
 10
204.0
 20
58.00000000000002
 30
-39.00000000000007
 70
   192
  0
VERTEX
  5
1931
  8
0
 10
204.0
 20
118.0
 30
-39.00000000000007
 70
   192
  0
VERTEX
  5
1932
  8
0
 10
204.0
 20
118.0
 30
-44.00000000000006
 70
   192
  0
VERTEX
  5
1933
  8
0
 10
0.0
 20
0.0
 30
0.0
 70
   128
 71
     1
 72
     4
 73
    -3
  0
VERTEX
  5
1934
  8
0
 10
0.0
 20
0.0
 30
0.0
 70
   128
 71
    -1
 72
     3
 73
     2
  0
SEQEND
  5
1E19
  8
0
  0
POLYLINE
  5
1935
  8
0
 66
     1
 10
0.0
 20
0.0
 30
0.0
 70
    64
 71
     4
 72
     2
  0
VERTEX
  5
1936
  8
0
 10
204.0
 20
118.0
 30
-44.00000000000006
 70
   192
  0
VERTEX
  5
1937
  8
0
 10
204.0
 20
118.0
 30
-39.00000000000007
 70
   192
  0
VERTEX
  5
1938
  8
0
 10
144.0
 20
117.9999999999999
 30
-39.00000000000007
 70
   192
  0
VERTEX
  5
1939
  8
0
 10
144.0
 20
117.9999999999999
 30
-44.00000000000006
 70
   192
  0
VERTEX
  5
193A
  8
0
 10
0.0
 20
0.0
 30
0.0
 70
   128
 71
     1
 72
     4
 73
    -3
  0
VERTEX
  5
193B
  8
0
 10
0.0
 20
0.0
 30
0.0
 70
   128
 71
    -1
 72
     3
 73
     2
  0
SEQEND
  5
1E1A
  8
0
  0
POLYLINE
  5
193C
  8
0
 66
     1
 10
0.0
 20
0.0
 30
0.0
 70
    64
 71
    14
 72
    14
  0
VERTEX
  5
193D
  8
0
 10
144.0
 20
117.9999999999999
 30
-39.00000000000007
 70
   192
  0
VERTEX
  5
193E
  8
0
 10
144.0000000000001
 20
57.99999999999999
 30
-39.00000000000007
 70
   192
  0
VERTEX
  5
193F
  8
0
 10
204.0
 20
58.00000000000002
 30
-39.00000000000007
 70
   192
  0
VERTEX
  5
1940
  8
0
 10
204.0
 20
118.0
 30
-39.00000000000007
 70
   192
  0
VERTEX
  5
1941
  8
0
 10
151.5
 20
87.99999999999994
 30
-39.00000000000007
 70
   192
  0
VERTEX
  5
1942
  8
0
 10
155.7971176265637
 20
101.2251681765806
 30
-39.00000000000007
 70
   192
  0
VERTEX
  5
1943
  8
0
 10
167.0471176265637
 20
109.3987716166409
 30
-39.00000000000007
 70
   192
  0
VERTEX
  5
1944
  8
0
 10
180.9528823734364
 20
109.3987716166409
 30
-39.00000000000007
 70
   192
  0
VERTEX
  5
1945
  8
0
 10
192.2028823734364
 20
101.2251681765806
 30
-39.00000000000007
 70
   192
  0
VERTEX
  5
1946
  8
0
 10
196.5
 20
87.99999999999994
 30
-39.00000000000007
 70
   192
  0
VERTEX
  5
1947
  8
0
 10
192.2028823734364
 20
74.77483182341929
 30
-39.00000000000007
 70
   192
  0
VERTEX
  5
1948
  8
0
 10
180.9528823734364
 20
66.60122838335899
 30
-39.00000000000007
 70
   192
  0
VERTEX
  5
1949
  8
0
 10
167.0471176265637
 20
66.601228383359
 30
-39.00000000000007
 70
   192
  0
VERTEX
  5
194A
  8
0
 10
155.7971176265637
 20
74.7748318234193
 30
-39.00000000000007
 70
   192
  0
VERTEX
  5
194B
  8
0
 10
0.0
 20
0.0
 30
0.0
 70
   128
 71
     1
 72
    -2
 73
    -5
  0
VERTEX
  5
194C
  8
0
 10
0.0
 20
0.0
 30
0.0
 70
   128
 71
     5
 72
    -6
 73
    -1
  0
VERTEX
  5
194D
  8
0
 10
0.0
 20
0.0
 30
0.0
 70
   128
 71
     6
 72
    -7
 73
    -1
  0
VERTEX
  5
194E
  8
0
 10
0.0
 20
0.0
 30
0.0
 70
   128
 71
    -8
 72
     4
 73
    -1
  0
VERTEX
  5
194F
  8
0
 10
0.0
 20
0.0
 30
0.0
 70
   128
 71
     7
 72
    -8
 73
    -1
  0
VERTEX
  5
1950
  8
0
 10
0.0
 20
0.0
 30
0.0
 70
   128
 71
     8
 72
    -9
 73
    -4
  0
VERTEX
  5
1951
  8
0
 10
0.0
 20
0.0
 30
0.0
 70
   128
 71
     9
 72
   -10
 73
    -4
  0
VERTEX
  5
1952
  8
0
 10
0.0
 20
0.0
 30
0.0
 70
   128
 71
   -10
 72
     3
 73
    -4
  0
VERTEX
  5
1953
  8
0
 10
0.0
 20
0.0
 30
0.0
 70
   128
 71
    10
 72
   -11
 73
    -3
  0
VERTEX
  5
1954
  8
0
 10
0.0
 20
0.0
 30
0.0
 70
   128
 71
    11
 72
   -12
 73
    -3
  0
VERTEX
  5
1955
  8
0
 10
0.0
 20
0.0
 30
0.0
 70
   128
 71
   -13
 72
     2
 73
    -3
  0
VERTEX
  5
1956
  8
0
 10
0.0
 20
0.0
 30
0.0
 70
   128
 71
    12
 72
   -13
 73
    -3
  0
VERTEX
  5
1957
  8
0
 10
0.0
 20
0.0
 30
0.0
 70
   128
 71
    13
 72
   -14
 73
    -2
  0
VERTEX
  5
1958
  8
0
 10
0.0
 20
0.0
 30
0.0
 70
   128
 71
    14
 72
    -5
 73
    -2
  0
SEQEND
  5
1E1B
  8
0
  0
POLYLINE
  5
1959
  8
0
 66
     1
 10
0.0
 20
0.0
 30
0.0
 70
    64
 71
    14
 72
    14
  0
VERTEX
  5
195A
  8
0
 10
144.0000000000001
 20
57.99999999999999
 30
-44.00000000000006
 70
   192
  0
VERTEX
  5
195B
  8
0
 10
204.0
 20
58.00000000000002
 30
-44.00000000000006
 70
   192
  0
VERTEX
  5
195C
  8
0
 10
204.0
 20
118.0
 30
-44.00000000000006
 70
   192
  0
VERTEX
  5
195D
  8
0
 10
144.0
 20
117.9999999999999
 30
-44.00000000000006
 70
   192
  0
VERTEX
  5
195E
  8
0
 10
196.5
 20
87.99999999999994
 30
-44.00000000000006
 70
   192
  0
VERTEX
  5
195F
  8
0
 10
192.2028823734364
 20
74.77483182341929
 30
-44.00000000000006
 70
   192
  0
VERTEX
  5
1960
  8
0
 10
180.9528823734364
 20
66.60122838335899
 30
-44.00000000000006
 70
   192
  0
VERTEX
  5
1961
  8
0
 10
167.0471176265637
 20
66.601228383359
 30
-44.00000000000006
 70
   192
  0
VERTEX
  5
1962
  8
0
 10
155.7971176265637
 20
74.7748318234193
 30
-44.00000000000006
 70
   192
  0
VERTEX
  5
1963
  8
0
 10
151.5
 20
87.99999999999994
 30
-44.00000000000006
 70
   192
  0
VERTEX
  5
1964
  8
0
 10
155.7971176265637
 20
101.2251681765806
 30
-44.00000000000006
 70
   192
  0
VERTEX
  5
1965
  8
0
 10
167.0471176265637
 20
109.3987716166409
 30
-44.00000000000006
 70
   192
  0
VERTEX
  5
1966
  8
0
 10
180.9528823734364
 20
109.3987716166409
 30
-44.00000000000006
 70
   192
  0
VERTEX
  5
1967
  8
0
 10
192.2028823734364
 20
101.2251681765806
 30
-44.00000000000006
 70
   192
  0
VERTEX
  5
1968
  8
0
 10
0.0
 20
0.0
 30
0.0
 70
   128
 71
     6
 72
    -5
 73
    -2
  0
VERTEX
  5
1969
  8
0
 10
0.0
 20
0.0
 30
0.0
 70
   128
 71
    -2
 72
     7
 73
    -6
  0
VERTEX
  5
196A
  8
0
 10
0.0
 20
0.0
 30
0.0
 70
   128
 71
     2
 72
    -1
 73
    -8
  0
VERTEX
  5
196B
  8
0
 10
0.0
 20
0.0
 30
0.0
 70
   128
 71
    -2
 72
     8
 73
    -7
  0
VERTEX
  5
196C
  8
0
 10
0.0
 20
0.0
 30
0.0
 70
   128
 71
    -1
 72
     9
 73
    -8
  0
VERTEX
  5
196D
  8
0
 10
0.0
 20
0.0
 30
0.0
 70
   128
 71
    -1
 72
    10
 73
    -9
  0
VERTEX
  5
196E
  8
0
 10
0.0
 20
0.0
 30
0.0
 70
   128
 71
   -10
 72
     1
 73
    -4
  0
VERTEX
  5
196F
  8
0
 10
0.0
 20
0.0
 30
0.0
 70
   128
 71
    -4
 72
    11
 73
   -10
  0
VERTEX
  5
1970
  8
0
 10
0.0
 20
0.0
 30
0.0
 70
   128
 71
    -4
 72
    12
 73
   -11
  0
VERTEX
  5
1971
  8
0
 10
0.0
 20
0.0
 30
0.0
 70
   128
 71
     4
 72
    -3
 73
   -13
  0
VERTEX
  5
1972
  8
0
 10
0.0
 20
0.0
 30
0.0
 70
   128
 71
    -4
 72
    13
 73
   -12
  0
VERTEX
  5
1973
  8
0
 10
0.0
 20
0.0
 30
0.0
 70
   128
 71
    -3
 72
    14
 73
   -13
  0
VERTEX
  5
1974
  8
0
 10
0.0
 20
0.0
 30
0.0
 70
   128
 71
    -3
 72
     5
 73
   -14
  0
VERTEX
  5
1975
  8
0
 10
0.0
 20
0.0
 30
0.0
 70
   128
 71
     3
 72
    -2
 73
    -5
  0
SEQEND
  5
1E1C
  8
0
  0
POLYLINE
  5
1976
  8
0
 66
     1
 10
0.0
 20
0.0
 30
0.0
 70
    64
 71
    12
 72
    10
  0
VERTEX
  5
1977
  8
0
 10
196.5
 20
87.99999999999994
 30
-42.00000000000007
 70
   192
  0
VERTEX
  5
1978
  8
0
 10
196.5
 20
87.99999999999994
 30
-39.00000000000007
 70
   192
  0
VERTEX
  5
1979
  8
0
 10
192.2028823734364
 20
101.2251681765806
 30
-39.00000000000007
 70
   192
  0
VERTEX
  5
197A
  8
0
 10
192.2028823734364
 20
101.2251681765806
 30
-42.00000000000007
 70
   192
  0
VERTEX
  5
197B
  8
0
 10
151.5
 20
87.99999999999994
 30
-39.00000000000007
 70
   192
  0
VERTEX
  5
197C
  8
0
 10
151.5
 20
87.99999999999994
 30
-42.00000000000007
 70
   192
  0
VERTEX
  5
197D
  8
0
 10
155.7971176265637
 20
101.2251681765806
 30
-42.00000000000007
 70
   192
  0
VERTEX
  5
197E
  8
0
 10
155.7971176265637
 20
101.2251681765806
 30
-39.00000000000007
 70
   192
  0
VERTEX
  5
197F
  8
0
 10
167.0471176265637
 20
109.3987716166409
 30
-42.00000000000007
 70
   192
  0
VERTEX
  5
1980
  8
0
 10
180.9528823734364
 20
109.3987716166409
 30
-42.00000000000007
 70
   192
  0
VERTEX
  5
1981
  8
0
 10
180.9528823734364
 20
109.3987716166409
 30
-39.00000000000007
 70
   192
  0
VERTEX
  5
1982
  8
0
 10
167.0471176265637
 20
109.3987716166409
 30
-39.00000000000007
 70
   192
  0
VERTEX
  5
1983
  8
0
 10
0.0
 20
0.0
 30
0.0
 70
   128
 71
     1
 72
     2
 73
    -3
  0
VERTEX
  5
1984
  8
0
 10
0.0
 20
0.0
 30
0.0
 70
   128
 71
     4
 72
    -1
 73
     3
  0
VERTEX
  5
1985
  8
0
 10
0.0
 20
0.0
 30
0.0
 70
   128
 71
     5
 72
     6
 73
    -7
  0
VERTEX
  5
1986
  8
0
 10
0.0
 20
0.0
 30
0.0
 70
   128
 71
     8
 72
    -5
 73
     7
  0
VERTEX
  5
1987
  8
0
 10
0.0
 20
0.0
 30
0.0
 70
   128
 71
     9
 72
    10
 73
   -11
  0
VERTEX
  5
1988
  8
0
 10
0.0
 20
0.0
 30
0.0
 70
   128
 71
    12
 72
    -9
 73
    11
  0
VERTEX
  5
1989
  8
0
 10
0.0
 20
0.0
 30
0.0
 70
   128
 71
    10
 72
     4
 73
    -3
  0
VERTEX
  5
198A
  8
0
 10
0.0
 20
0.0
 30
0.0
 70
   128
 71
    11
 72
   -10
 73
     3
  0
VERTEX
  5
198B
  8
0
 10
0.0
 20
0.0
 30
0.0
 70
   128
 71
     7
 72
     9
 73
   -12
  0
VERTEX
  5
198C
  8
0
 10
0.0
 20
0.0
 30
0.0
 70
   128
 71
     8
 72
    -7
 73
    12
  0
SEQEND
  5
1E1D
  8
0
  0
POLYLINE
  5
198D
  8
0
 66
     1
 10
0.0
 20
0.0
 30
0.0
 70
    64
 71
    42
 72
    48
  0
VERTEX
  5
198E
  8
0
 10
196.5
 20
87.99999999999994
 30
-42.00000000000007
 70
   192
  0
VERTEX
  5
198F
  8
0
 10
192.2028823734364
 20
101.2251681765806
 30
-42.00000000000007
 70
   192
  0
VERTEX
  5
1990
  8
0
 10
180.9528823734364
 20
109.3987716166409
 30
-42.00000000000007
 70
   192
  0
VERTEX
  5
1991
  8
0
 10
167.0471176265637
 20
109.3987716166409
 30
-42.00000000000007
 70
   192
  0
VERTEX
  5
1992
  8
0
 10
155.7971176265637
 20
101.2251681765806
 30
-42.00000000000007
 70
   192
  0
VERTEX
  5
1993
  8
0
 10
151.5
 20
87.99999999999994
 30
-42.00000000000007
 70
   192
  0
VERTEX
  5
1994
  8
0
 10
155.7971176265637
 20
74.7748318234193
 30
-42.00000000000007
 70
   192
  0
VERTEX
  5
1995
  8
0
 10
167.0471176265637
 20
66.601228383359
 30
-42.00000000000007
 70
   192
  0
VERTEX
  5
1996
  8
0
 10
180.9528823734364
 20
66.60122838335899
 30
-42.00000000000007
 70
   192
  0
VERTEX
  5
1997
  8
0
 10
192.2028823734364
 20
74.77483182341929
 30
-42.00000000000007
 70
   192
  0
VERTEX
  5
1998
  8
0
 10
161.0
 20
87.99999999999994
 30
-42.00000000000007
 70
   192
  0
VERTEX
  5
1999
  8
0
 10
161.8786796564404
 20
90.12132034355959
 30
-42.00000000000007
 70
   192
  0
VERTEX
  5
199A
  8
0
 10
164.0
 20
90.99999999999994
 30
-42.00000000000007
 70
   192
  0
VERTEX
  5
199B
  8
0
 10
166.1213203435596
 20
90.12132034355959
 30
-42.00000000000007
 70
   192
  0
VERTEX
  5
199C
  8
0
 10
167.0
 20
87.99999999999994
 30
-42.00000000000007
 70
   192
  0
VERTEX
  5
199D
  8
0
 10
166.1213203435596
 20
85.8786796564403
 30
-42.00000000000007
 70
   192
  0
VERTEX
  5
199E
  8
0
 10
164.0
 20
84.99999999999994
 30
-42.00000000000007
 70
   192
  0
VERTEX
  5
199F
  8
0
 10
161.8786796564404
 20
85.8786796564403
 30
-42.00000000000007
 70
   192
  0
VERTEX
  5
19A0
  8
0
 10
181.0
 20
87.99999999999994
 30
-42.00000000000007
 70
   192
  0
VERTEX
  5
19A1
  8
0
 10
181.8786796564404
 20
90.12132034355959
 30
-42.00000000000007
 70
   192
  0
VERTEX
  5
19A2
  8
0
 10
184.0
 20
90.99999999999994
 30
-42.00000000000007
 70
   192
  0
VERTEX
  5
19A3
  8
0
 10
186.1213203435597
 20
90.12132034355959
 30
-42.00000000000007
 70
   192
  0
VERTEX
  5
19A4
  8
0
 10
187.0
 20
87.99999999999994
 30
-42.00000000000007
 70
   192
  0
VERTEX
  5
19A5
  8
0
 10
186.1213203435597
 20
85.8786796564403
 30
-42.00000000000007
 70
   192
  0
VERTEX
  5
19A6
  8
0
 10
184.0
 20
84.99999999999994
 30
-42.00000000000007
 70
   192
  0
VERTEX
  5
19A7
  8
0
 10
181.8786796564404
 20
85.8786796564403
 30
-42.00000000000007
 70
   192
  0
VERTEX
  5
19A8
  8
0
 10
171.5
 20
87.99999999999994
 30
-42.00000000000007
 70
   192
  0
VERTEX
  5
19A9
  8
0
 10
172.2322330470336
 20
89.76776695296631
 30
-42.00000000000007
 70
   192
  0
VERTEX
  5
19AA
  8
0
 10
174.0
 20
90.49999999999994
 30
-42.00000000000007
 70
   192
  0
VERTEX
  5
19AB
  8
0
 10
175.7677669529664
 20
89.76776695296631
 30
-42.00000000000007
 70
   192
  0
VERTEX
  5
19AC
  8
0
 10
176.5
 20
87.99999999999994
 30
-42.00000000000007
 70
   192
  0
VERTEX
  5
19AD
  8
0
 10
175.7677669529664
 20
86.23223304703357
 30
-42.00000000000007
 70
   192
  0
VERTEX
  5
19AE
  8
0
 10
174.0
 20
85.49999999999994
 30
-42.00000000000007
 70
   192
  0
VERTEX
  5
19AF
  8
0
 10
172.2322330470336
 20
86.23223304703357
 30
-42.00000000000007
 70
   192
  0
VERTEX
  5
19B0
  8
0
 10
176.0
 20
102.9999999999999
 30
-42.00000000000007
 70
   192
  0
VERTEX
  5
19B1
  8
0
 10
175.4142135623731
 20
101.5857864376269
 30
-42.00000000000007
 70
   192
  0
VERTEX
  5
19B2
  8
0
 10
174.0
 20
100.9999999999999
 30
-42.00000000000007
 70
   192
  0
VERTEX
  5
19B3
  8
0
 10
172.5857864376269
 20
101.5857864376269
 30
-42.00000000000007
 70
   192
  0
VERTEX
  5
19B4
  8
0
 10
172.0
 20
102.9999999999999
 30
-42.00000000000007
 70
   192
  0
VERTEX
  5
19B5
  8
0
 10
172.5857864376269
 20
104.414213562373
 30
-42.00000000000007
 70
   192
  0
VERTEX
  5
19B6
  8
0
 10
174.0
 20
104.9999999999999
 30
-42.00000000000007
 70
   192
  0
VERTEX
  5
19B7
  8
0
 10
175.4142135623731
 20
104.414213562373
 30
-42.00000000000007
 70
   192
  0
VERTEX
  5
19B8
  8
0
 10
0.0
 20
0.0
 30
0.0
 70
   128
 71
   -19
 72
    31
 73
   -32
  0
VERTEX
  5
19B9
  8
0
 10
0.0
 20
0.0
 30
0.0
 70
   128
 71
    26
 72
   -19
 73
   -32
  0
VERTEX
  5
19BA
  8
0
 10
0.0
 20
0.0
 30
0.0
 70
   128
 71
    32
 72
   -33
 73
   -26
  0
VERTEX
  5
19BB
  8
0
 10
0.0
 20
0.0
 30
0.0
 70
   128
 71
    -8
 72
   -26
 73
   -33
  0
VERTEX
  5
19BC
  8
0
 10
0.0
 20
0.0
 30
0.0
 70
   128
 71
     7
 72
    -8
 73
   -33
  0
VERTEX
  5
19BD
  8
0
 10
0.0
 20
0.0
 30
0.0
 70
   128
 71
    33
 72
   -34
 73
    -7
  0
VERTEX
  5
19BE
  8
0
 10
0.0
 20
0.0
 30
0.0
 70
   128
 71
   -27
 72
    15
 73
   -16
  0
VERTEX
  5
19BF
  8
0
 10
0.0
 20
0.0
 30
0.0
 70
   128
 71
    34
 72
   -27
 73
   -16
  0
VERTEX
  5
19C0
  8
0
 10
0.0
 20
0.0
 30
0.0
 70
   128
 71
    16
 72
   -17
 73
   -34
  0
VERTEX
  5
19C1
  8
0
 10
0.0
 20
0.0
 30
0.0
 70
   128
 71
    -7
 72
   -34
 73
   -17
  0
VERTEX
  5
19C2
  8
0
 10
0.0
 20
0.0
 30
0.0
 70
   128
 71
   -17
 72
     6
 73
    -7
  0
VERTEX
  5
19C3
  8
0
 10
0.0
 20
0.0
 30
0.0
 70
   128
 71
    17
 72
   -18
 73
    -6
  0
VERTEX
  5
19C4
  8
0
 10
0.0
 20
0.0
 30
0.0
 70
   128
 71
    18
 72
   -11
 73
    -6
  0
VERTEX
  5
19C5
  8
0
 10
0.0
 20
0.0
 30
0.0
 70
   128
 71
    -6
 72
    11
 73
   -12
  0
VERTEX
  5
19C6
  8
0
 10
0.0
 20
0.0
 30
0.0
 70
   128
 71
    12
 72
   -13
 73
    -6
  0
VERTEX
  5
19C7
  8
0
 10
0.0
 20
0.0
 30
0.0
 70
   128
 71
     5
 72
    -6
 73
   -13
  0
VERTEX
  5
19C8
  8
0
 10
0.0
 20
0.0
 30
0.0
 70
   128
 71
   -13
 72
   -28
 73
    -5
  0
VERTEX
  5
19C9
  8
0
 10
0.0
 20
0.0
 30
0.0
 70
   128
 71
    13
 72
   -14
 73
   -28
  0
VERTEX
  5
19CA
  8
0
 10
0.0
 20
0.0
 30
0.0
 70
   128
 71
   -15
 72
    27
 73
   -28
  0
VERTEX
  5
19CB
  8
0
 10
0.0
 20
0.0
 30
0.0
 70
   128
 71
    14
 72
   -15
 73
   -28
  0
VERTEX
  5
19CC
  8
0
 10
0.0
 20
0.0
 30
0.0
 70
   128
 71
    28
 72
   -29
 73
    -5
  0
VERTEX
  5
19CD
  8
0
 10
0.0
 20
0.0
 30
0.0
 70
   128
 71
   -20
 72
    37
 73
   -38
  0
VERTEX
  5
19CE
  8
0
 10
0.0
 20
0.0
 30
0.0
 70
   128
 71
   -29
 72
   -20
 73
   -38
  0
VERTEX
  5
19CF
  8
0
 10
0.0
 20
0.0
 30
0.0
 70
   128
 71
     4
 72
    -5
 73
   -29
  0
VERTEX
  5
19D0
  8
0
 10
0.0
 20
0.0
 30
0.0
 70
   128
 71
   -39
 72
    -4
 73
   -29
  0
VERTEX
  5
19D1
  8
0
 10
0.0
 20
0.0
 30
0.0
 70
   128
 71
    38
 72
   -39
 73
   -29
  0
VERTEX
  5
19D2
  8
0
 10
0.0
 20
0.0
 30
0.0
 70
   128
 71
    39
 72
   -40
 73
    -4
  0
VERTEX
  5
19D3
  8
0
 10
0.0
 20
0.0
 30
0.0
 70
   128
 71
   -41
 72
     3
 73
    -4
  0
VERTEX
  5
19D4
  8
0
 10
0.0
 20
0.0
 30
0.0
 70
   128
 71
    40
 72
   -41
 73
    -4
  0
VERTEX
  5
19D5
  8
0
 10
0.0
 20
0.0
 30
0.0
 70
   128
 71
    41
 72
   -42
 73
    -3
  0
VERTEX
  5
19D6
  8
0
 10
0.0
 20
0.0
 30
0.0
 70
   128
 71
    42
 72
   -35
 73
    -3
  0
VERTEX
  5
19D7
  8
0
 10
0.0
 20
0.0
 30
0.0
 70
   128
 71
    29
 72
   -30
 73
   -20
  0
VERTEX
  5
19D8
  8
0
 10
0.0
 20
0.0
 30
0.0
 70
   128
 71
   -31
 72
    19
 73
   -20
  0
VERTEX
  5
19D9
  8
0
 10
0.0
 20
0.0
 30
0.0
 70
   128
 71
    30
 72
   -31
 73
   -20
  0
VERTEX
  5
19DA
  8
0
 10
0.0
 20
0.0
 30
0.0
 70
   128
 71
    -3
 72
    35
 73
   -36
  0
VERTEX
  5
19DB
  8
0
 10
0.0
 20
0.0
 30
0.0
 70
   128
 71
     2
 72
    -3
 73
   -36
  0
VERTEX
  5
19DC
  8
0
 10
0.0
 20
0.0
 30
0.0
 70
   128
 71
   -21
 72
    -2
 73
   -36
  0
VERTEX
  5
19DD
  8
0
 10
0.0
 20
0.0
 30
0.0
 70
   128
 71
   -37
 72
    20
 73
   -21
  0
VERTEX
  5
19DE
  8
0
 10
0.0
 20
0.0
 30
0.0
 70
   128
 71
    36
 72
   -37
 73
   -21
  0
VERTEX
  5
19DF
  8
0
 10
0.0
 20
0.0
 30
0.0
 70
   128
 71
   -22
 72
     1
 73
    -2
  0
VERTEX
  5
19E0
  8
0
 10
0.0
 20
0.0
 30
0.0
 70
   128
 71
    21
 72
   -22
 73
    -2
  0
VERTEX
  5
19E1
  8
0
 10
0.0
 20
0.0
 30
0.0
 70
   128
 71
    22
 72
   -23
 73
    -1
  0
VERTEX
  5
19E2
  8
0
 10
0.0
 20
0.0
 30
0.0
 70
   128
 71
    23
 72
   -24
 73
    -1
  0
VERTEX
  5
19E3
  8
0
 10
0.0
 20
0.0
 30
0.0
 70
   128
 71
   -25
 72
    10
 73
    -1
  0
VERTEX
  5
19E4
  8
0
 10
0.0
 20
0.0
 30
0.0
 70
   128
 71
    24
 72
   -25
 73
    -1
  0
VERTEX
  5
19E5
  8
0
 10
0.0
 20
0.0
 30
0.0
 70
   128
 71
     8
 72
     9
 73
   -10
  0
VERTEX
  5
19E6
  8
0
 10
0.0
 20
0.0
 30
0.0
 70
   128
 71
   -26
 72
    -8
 73
   -10
  0
VERTEX
  5
19E7
  8
0
 10
0.0
 20
0.0
 30
0.0
 70
   128
 71
    25
 72
   -26
 73
   -10
  0
SEQEND
  5
1E1E
  8
0
  0
POLYLINE
  5
19E8
  8
0
 66
     1
 10
0.0
 20
0.0
 30
0.0
 70
    64
 71
    12
 72
    10
  0
VERTEX
  5
19E9
  8
0
 10
155.7971176265637
 20
74.7748318234193
 30
-44.00000000000006
 70
   192
  0
VERTEX
  5
19EA
  8
0
 10
151.5
 20
87.99999999999994
 30
-44.00000000000006
 70
   192
  0
VERTEX
  5
19EB
  8
0
 10
151.5
 20
87.99999999999994
 30
-74.00000000000007
 70
   192
  0
VERTEX
  5
19EC
  8
0
 10
155.7971176265637
 20
74.7748318234193
 30
-74.00000000000007
 70
   192
  0
VERTEX
  5
19ED
  8
0
 10
192.2028823734364
 20
74.77483182341929
 30
-74.00000000000007
 70
   192
  0
VERTEX
  5
19EE
  8
0
 10
196.5
 20
87.99999999999994
 30
-74.00000000000007
 70
   192
  0
VERTEX
  5
19EF
  8
0
 10
196.5
 20
87.99999999999994
 30
-44.00000000000006
 70
   192
  0
VERTEX
  5
19F0
  8
0
 10
192.2028823734364
 20
74.77483182341929
 30
-44.00000000000006
 70
   192
  0
VERTEX
  5
19F1
  8
0
 10
167.0471176265637
 20
66.601228383359
 30
-44.00000000000006
 70
   192
  0
VERTEX
  5
19F2
  8
0
 10
167.0471176265637
 20
66.601228383359
 30
-74.00000000000007
 70
   192
  0
VERTEX
  5
19F3
  8
0
 10
180.9528823734364
 20
66.60122838335899
 30
-74.00000000000007
 70
   192
  0
VERTEX
  5
19F4
  8
0
 10
180.9528823734364
 20
66.60122838335899
 30
-44.00000000000006
 70
   192
  0
VERTEX
  5
19F5
  8
0
 10
0.0
 20
0.0
 30
0.0
 70
   128
 71
     1
 72
     2
 73
    -3
  0
VERTEX
  5
19F6
  8
0
 10
0.0
 20
0.0
 30
0.0
 70
   128
 71
    -1
 72
     3
 73
     4
  0
VERTEX
  5
19F7
  8
0
 10
0.0
 20
0.0
 30
0.0
 70
   128
 71
     5
 72
     6
 73
    -7
  0
VERTEX
  5
19F8
  8
0
 10
0.0
 20
0.0
 30
0.0
 70
   128
 71
    -5
 72
     7
 73
     8
  0
VERTEX
  5
19F9
  8
0
 10
0.0
 20
0.0
 30
0.0
 70
   128
 71
     9
 72
    10
 73
   -11
  0
VERTEX
  5
19FA
  8
0
 10
0.0
 20
0.0
 30
0.0
 70
   128
 71
    -9
 72
    11
 73
    12
  0
VERTEX
  5
19FB
  8
0
 10
0.0
 20
0.0
 30
0.0
 70
   128
 71
     1
 72
     4
 73
   -10
  0
VERTEX
  5
19FC
  8
0
 10
0.0
 20
0.0
 30
0.0
 70
   128
 71
    -1
 72
    10
 73
     9
  0
VERTEX
  5
19FD
  8
0
 10
0.0
 20
0.0
 30
0.0
 70
   128
 71
    12
 72
    11
 73
    -5
  0
VERTEX
  5
19FE
  8
0
 10
0.0
 20
0.0
 30
0.0
 70
   128
 71
   -12
 72
     5
 73
     8
  0
SEQEND
  5
1E1F
  8
0
  0
POLYLINE
  5
19FF
  8
0
 66
     1
 10
0.0
 20
0.0
 30
0.0
 70
    64
 71
    10
 72
     8
  0
VERTEX
  5
1A00
  8
0
 10
151.5
 20
87.99999999999994
 30
-74.00000000000007
 70
   192
  0
VERTEX
  5
1A01
  8
0
 10
155.7971176265637
 20
74.7748318234193
 30
-74.00000000000007
 70
   192
  0
VERTEX
  5
1A02
  8
0
 10
167.0471176265637
 20
66.601228383359
 30
-74.00000000000007
 70
   192
  0
VERTEX
  5
1A03
  8
0
 10
180.9528823734364
 20
66.60122838335899
 30
-74.00000000000007
 70
   192
  0
VERTEX
  5
1A04
  8
0
 10
192.2028823734364
 20
74.77483182341929
 30
-74.00000000000007
 70
   192
  0
VERTEX
  5
1A05
  8
0
 10
196.5
 20
87.99999999999994
 30
-74.00000000000007
 70
   192
  0
VERTEX
  5
1A06
  8
0
 10
192.2028823734364
 20
101.2251681765806
 30
-74.00000000000007
 70
   192
  0
VERTEX
  5
1A07
  8
0
 10
180.9528823734364
 20
109.3987716166409
 30
-74.00000000000007
 70
   192
  0
VERTEX
  5
1A08
  8
0
 10
167.0471176265637
 20
109.3987716166409
 30
-74.00000000000007
 70
   192
  0
VERTEX
  5
1A09
  8
0
 10
155.7971176265637
 20
101.2251681765806
 30
-74.00000000000007
 70
   192
  0
VERTEX
  5
1A0A
  8
0
 10
0.0
 20
0.0
 30
0.0
 70
   128
 71
     1
 72
    10
 73
    -9
  0
VERTEX
  5
1A0B
  8
0
 10
0.0
 20
0.0
 30
0.0
 70
   128
 71
    -1
 72
     9
 73
    -8
  0
VERTEX
  5
1A0C
  8
0
 10
0.0
 20
0.0
 30
0.0
 70
   128
 71
    -1
 72
     8
 73
    -7
  0
VERTEX
  5
1A0D
  8
0
 10
0.0
 20
0.0
 30
0.0
 70
   128
 71
    -1
 72
     7
 73
    -6
  0
VERTEX
  5
1A0E
  8
0
 10
0.0
 20
0.0
 30
0.0
 70
   128
 71
    -1
 72
     6
 73
    -5
  0
VERTEX
  5
1A0F
  8
0
 10
0.0
 20
0.0
 30
0.0
 70
   128
 71
    -1
 72
     5
 73
    -4
  0
VERTEX
  5
1A10
  8
0
 10
0.0
 20
0.0
 30
0.0
 70
   128
 71
    -1
 72
     4
 73
    -3
  0
VERTEX
  5
1A11
  8
0
 10
0.0
 20
0.0
 30
0.0
 70
   128
 71
    -1
 72
     3
 73
     2
  0
SEQEND
  5
1E20
  8
0
  0
POLYLINE
  5
1A12
  8
0
 66
     1
 10
0.0
 20
0.0
 30
0.0
 70
    64
 71
    10
 72
     8
  0
VERTEX
  5
1A13
  8
0
 10
176.5
 20
87.99999999999994
 30
-43.00000000000007
 70
   192
  0
VERTEX
  5
1A14
  8
0
 10
171.5
 20
87.99999999999994
 30
-43.00000000000007
 70
   192
  0
VERTEX
  5
1A15
  8
0
 10
171.5
 20
87.99999999999994
 30
-42.00000000000007
 70
   192
  0
VERTEX
  5
1A16
  8
0
 10
176.5
 20
87.99999999999994
 30
-42.00000000000007
 70
   192
  0
VERTEX
  5
1A17
  8
0
 10
174.0
 20
90.49999999999994
 30
-42.00000000000007
 70
   192
  0
VERTEX
  5
1A18
  8
0
 10
174.0
 20
90.49999999999994
 30
-43.00000000000007
 70
   192
  0
VERTEX
  5
1A19
  8
0
 10
175.7677669529664
 20
89.76776695296631
 30
-42.00000000000007
 70
   192
  0
VERTEX
  5
1A1A
  8
0
 10
175.7677669529664
 20
89.76776695296631
 30
-43.00000000000007
 70
   192
  0
VERTEX
  5
1A1B
  8
0
 10
172.2322330470336
 20
89.76776695296631
 30
-42.00000000000007
 70
   192
  0
VERTEX
  5
1A1C
  8
0
 10
172.2322330470336
 20
89.76776695296631
 30
-43.00000000000007
 70
   192
  0
VERTEX
  5
1A1D
  8
0
 10
0.0
 20
0.0
 30
0.0
 70
   128
 71
     8
 72
     1
 73
    -4
  0
VERTEX
  5
1A1E
  8
0
 10
0.0
 20
0.0
 30
0.0
 70
   128
 71
     7
 72
    -8
 73
     4
  0
VERTEX
  5
1A1F
  8
0
 10
0.0
 20
0.0
 30
0.0
 70
   128
 71
     6
 72
     8
 73
    -7
  0
VERTEX
  5
1A20
  8
0
 10
0.0
 20
0.0
 30
0.0
 70
   128
 71
     5
 72
    -6
 73
     7
  0
VERTEX
  5
1A21
  8
0
 10
0.0
 20
0.0
 30
0.0
 70
   128
 71
    10
 72
     6
 73
    -5
  0
VERTEX
  5
1A22
  8
0
 10
0.0
 20
0.0
 30
0.0
 70
   128
 71
     9
 72
   -10
 73
     5
  0
VERTEX
  5
1A23
  8
0
 10
0.0
 20
0.0
 30
0.0
 70
   128
 71
     3
 72
     2
 73
   -10
  0
VERTEX
  5
1A24
  8
0
 10
0.0
 20
0.0
 30
0.0
 70
   128
 71
     9
 72
    -3
 73
    10
  0
SEQEND
  5
1E21
  8
0
  0
POLYLINE
  5
1A25
  8
0
 66
     1
 10
0.0
 20
0.0
 30
0.0
 70
    64
 71
     8
 72
     6
  0
VERTEX
  5
1A26
  8
0
 10
176.5
 20
87.99999999999994
 30
-43.00000000000007
 70
   192
  0
VERTEX
  5
1A27
  8
0
 10
175.7677669529664
 20
89.76776695296631
 30
-43.00000000000007
 70
   192
  0
VERTEX
  5
1A28
  8
0
 10
174.0
 20
90.49999999999994
 30
-43.00000000000007
 70
   192
  0
VERTEX
  5
1A29
  8
0
 10
172.2322330470336
 20
89.76776695296631
 30
-43.00000000000007
 70
   192
  0
VERTEX
  5
1A2A
  8
0
 10
171.5
 20
87.99999999999994
 30
-43.00000000000007
 70
   192
  0
VERTEX
  5
1A2B
  8
0
 10
172.2322330470336
 20
86.23223304703357
 30
-43.00000000000007
 70
   192
  0
VERTEX
  5
1A2C
  8
0
 10
174.0
 20
85.49999999999994
 30
-43.00000000000007
 70
   192
  0
VERTEX
  5
1A2D
  8
0
 10
175.7677669529664
 20
86.23223304703357
 30
-43.00000000000007
 70
   192
  0
VERTEX
  5
1A2E
  8
0
 10
0.0
 20
0.0
 30
0.0
 70
   128
 71
     7
 72
     8
 73
    -1
  0
VERTEX
  5
1A2F
  8
0
 10
0.0
 20
0.0
 30
0.0
 70
   128
 71
     6
 72
    -7
 73
    -1
  0
VERTEX
  5
1A30
  8
0
 10
0.0
 20
0.0
 30
0.0
 70
   128
 71
     5
 72
    -6
 73
    -1
  0
VERTEX
  5
1A31
  8
0
 10
0.0
 20
0.0
 30
0.0
 70
   128
 71
     4
 72
    -5
 73
    -1
  0
VERTEX
  5
1A32
  8
0
 10
0.0
 20
0.0
 30
0.0
 70
   128
 71
     3
 72
    -4
 73
    -1
  0
VERTEX
  5
1A33
  8
0
 10
0.0
 20
0.0
 30
0.0
 70
   128
 71
     2
 72
    -3
 73
     1
  0
SEQEND
  5
1E22
  8
0
  0
POLYLINE
  5
1A34
  8
0
 66
     1
 10
0.0
 20
0.0
 30
0.0
 70
    64
 71
    10
 72
     8
  0
VERTEX
  5
1A35
  8
0
 10
187.0
 20
87.99999999999994
 30
-43.00000000000007
 70
   192
  0
VERTEX
  5
1A36
  8
0
 10
181.0
 20
87.99999999999994
 30
-43.00000000000007
 70
   192
  0
VERTEX
  5
1A37
  8
0
 10
181.0
 20
87.99999999999994
 30
-42.00000000000007
 70
   192
  0
VERTEX
  5
1A38
  8
0
 10
187.0
 20
87.99999999999994
 30
-42.00000000000007
 70
   192
  0
VERTEX
  5
1A39
  8
0
 10
184.0
 20
90.99999999999994
 30
-42.00000000000007
 70
   192
  0
VERTEX
  5
1A3A
  8
0
 10
184.0
 20
90.99999999999994
 30
-43.00000000000007
 70
   192
  0
VERTEX
  5
1A3B
  8
0
 10
186.1213203435597
 20
90.12132034355959
 30
-42.00000000000007
 70
   192
  0
VERTEX
  5
1A3C
  8
0
 10
186.1213203435597
 20
90.12132034355959
 30
-43.00000000000007
 70
   192
  0
VERTEX
  5
1A3D
  8
0
 10
181.8786796564404
 20
90.12132034355959
 30
-42.00000000000007
 70
   192
  0
VERTEX
  5
1A3E
  8
0
 10
181.8786796564404
 20
90.12132034355959
 30
-43.00000000000007
 70
   192
  0
VERTEX
  5
1A3F
  8
0
 10
0.0
 20
0.0
 30
0.0
 70
   128
 71
     8
 72
     1
 73
    -4
  0
VERTEX
  5
1A40
  8
0
 10
0.0
 20
0.0
 30
0.0
 70
   128
 71
     7
 72
    -8
 73
     4
  0
VERTEX
  5
1A41
  8
0
 10
0.0
 20
0.0
 30
0.0
 70
   128
 71
     6
 72
     8
 73
    -7
  0
VERTEX
  5
1A42
  8
0
 10
0.0
 20
0.0
 30
0.0
 70
   128
 71
     5
 72
    -6
 73
     7
  0
VERTEX
  5
1A43
  8
0
 10
0.0
 20
0.0
 30
0.0
 70
   128
 71
    10
 72
     6
 73
    -5
  0
VERTEX
  5
1A44
  8
0
 10
0.0
 20
0.0
 30
0.0
 70
   128
 71
     9
 72
   -10
 73
     5
  0
VERTEX
  5
1A45
  8
0
 10
0.0
 20
0.0
 30
0.0
 70
   128
 71
     3
 72
     2
 73
   -10
  0
VERTEX
  5
1A46
  8
0
 10
0.0
 20
0.0
 30
0.0
 70
   128
 71
     9
 72
    -3
 73
    10
  0
SEQEND
  5
1E23
  8
0
  0
POLYLINE
  5
1A47
  8
0
 66
     1
 10
0.0
 20
0.0
 30
0.0
 70
    64
 71
     8
 72
     6
  0
VERTEX
  5
1A48
  8
0
 10
187.0
 20
87.99999999999994
 30
-43.00000000000007
 70
   192
  0
VERTEX
  5
1A49
  8
0
 10
186.1213203435597
 20
90.12132034355959
 30
-43.00000000000007
 70
   192
  0
VERTEX
  5
1A4A
  8
0
 10
184.0
 20
90.99999999999994
 30
-43.00000000000007
 70
   192
  0
VERTEX
  5
1A4B
  8
0
 10
181.8786796564404
 20
90.12132034355959
 30
-43.00000000000007
 70
   192
  0
VERTEX
  5
1A4C
  8
0
 10
181.0
 20
87.99999999999994
 30
-43.00000000000007
 70
   192
  0
VERTEX
  5
1A4D
  8
0
 10
181.8786796564404
 20
85.8786796564403
 30
-43.00000000000007
 70
   192
  0
VERTEX
  5
1A4E
  8
0
 10
184.0
 20
84.99999999999994
 30
-43.00000000000007
 70
   192
  0
VERTEX
  5
1A4F
  8
0
 10
186.1213203435597
 20
85.8786796564403
 30
-43.00000000000007
 70
   192
  0
VERTEX
  5
1A50
  8
0
 10
0.0
 20
0.0
 30
0.0
 70
   128
 71
     7
 72
     8
 73
    -1
  0
VERTEX
  5
1A51
  8
0
 10
0.0
 20
0.0
 30
0.0
 70
   128
 71
     6
 72
    -7
 73
    -1
  0
VERTEX
  5
1A52
  8
0
 10
0.0
 20
0.0
 30
0.0
 70
   128
 71
     5
 72
    -6
 73
    -1
  0
VERTEX
  5
1A53
  8
0
 10
0.0
 20
0.0
 30
0.0
 70
   128
 71
     4
 72
    -5
 73
    -1
  0
VERTEX
  5
1A54
  8
0
 10
0.0
 20
0.0
 30
0.0
 70
   128
 71
     3
 72
    -4
 73
    -1
  0
VERTEX
  5
1A55
  8
0
 10
0.0
 20
0.0
 30
0.0
 70
   128
 71
     2
 72
    -3
 73
     1
  0
SEQEND
  5
1E24
  8
0
  0
POLYLINE
  5
1A56
  8
0
 66
     1
 10
0.0
 20
0.0
 30
0.0
 70
    64
 71
    10
 72
     8
  0
VERTEX
  5
1A57
  8
0
 10
167.0
 20
87.99999999999994
 30
-43.00000000000007
 70
   192
  0
VERTEX
  5
1A58
  8
0
 10
161.0
 20
87.99999999999994
 30
-43.00000000000007
 70
   192
  0
VERTEX
  5
1A59
  8
0
 10
161.0
 20
87.99999999999994
 30
-42.00000000000007
 70
   192
  0
VERTEX
  5
1A5A
  8
0
 10
167.0
 20
87.99999999999994
 30
-42.00000000000007
 70
   192
  0
VERTEX
  5
1A5B
  8
0
 10
164.0
 20
90.99999999999994
 30
-42.00000000000007
 70
   192
  0
VERTEX
  5
1A5C
  8
0
 10
164.0
 20
90.99999999999994
 30
-43.00000000000007
 70
   192
  0
VERTEX
  5
1A5D
  8
0
 10
166.1213203435596
 20
90.12132034355959
 30
-42.00000000000007
 70
   192
  0
VERTEX
  5
1A5E
  8
0
 10
166.1213203435596
 20
90.12132034355959
 30
-43.00000000000007
 70
   192
  0
VERTEX
  5
1A5F
  8
0
 10
161.8786796564404
 20
90.12132034355959
 30
-42.00000000000007
 70
   192
  0
VERTEX
  5
1A60
  8
0
 10
161.8786796564404
 20
90.12132034355959
 30
-43.00000000000007
 70
   192
  0
VERTEX
  5
1A61
  8
0
 10
0.0
 20
0.0
 30
0.0
 70
   128
 71
     8
 72
     1
 73
    -4
  0
VERTEX
  5
1A62
  8
0
 10
0.0
 20
0.0
 30
0.0
 70
   128
 71
     7
 72
    -8
 73
     4
  0
VERTEX
  5
1A63
  8
0
 10
0.0
 20
0.0
 30
0.0
 70
   128
 71
     6
 72
     8
 73
    -7
  0
VERTEX
  5
1A64
  8
0
 10
0.0
 20
0.0
 30
0.0
 70
   128
 71
     5
 72
    -6
 73
     7
  0
VERTEX
  5
1A65
  8
0
 10
0.0
 20
0.0
 30
0.0
 70
   128
 71
    10
 72
     6
 73
    -5
  0
VERTEX
  5
1A66
  8
0
 10
0.0
 20
0.0
 30
0.0
 70
   128
 71
     9
 72
   -10
 73
     5
  0
VERTEX
  5
1A67
  8
0
 10
0.0
 20
0.0
 30
0.0
 70
   128
 71
     3
 72
     2
 73
   -10
  0
VERTEX
  5
1A68
  8
0
 10
0.0
 20
0.0
 30
0.0
 70
   128
 71
     9
 72
    -3
 73
    10
  0
SEQEND
  5
1E25
  8
0
  0
POLYLINE
  5
1A69
  8
0
 66
     1
 10
0.0
 20
0.0
 30
0.0
 70
    64
 71
     8
 72
     6
  0
VERTEX
  5
1A6A
  8
0
 10
167.0
 20
87.99999999999994
 30
-43.00000000000007
 70
   192
  0
VERTEX
  5
1A6B
  8
0
 10
166.1213203435596
 20
90.12132034355959
 30
-43.00000000000007
 70
   192
  0
VERTEX
  5
1A6C
  8
0
 10
164.0
 20
90.99999999999994
 30
-43.00000000000007
 70
   192
  0
VERTEX
  5
1A6D
  8
0
 10
161.8786796564404
 20
90.12132034355959
 30
-43.00000000000007
 70
   192
  0
VERTEX
  5
1A6E
  8
0
 10
161.0
 20
87.99999999999994
 30
-43.00000000000007
 70
   192
  0
VERTEX
  5
1A6F
  8
0
 10
161.8786796564404
 20
85.8786796564403
 30
-43.00000000000007
 70
   192
  0
VERTEX
  5
1A70
  8
0
 10
164.0
 20
84.99999999999994
 30
-43.00000000000007
 70
   192
  0
VERTEX
  5
1A71
  8
0
 10
166.1213203435596
 20
85.8786796564403
 30
-43.00000000000007
 70
   192
  0
VERTEX
  5
1A72
  8
0
 10
0.0
 20
0.0
 30
0.0
 70
   128
 71
     7
 72
     8
 73
    -1
  0
VERTEX
  5
1A73
  8
0
 10
0.0
 20
0.0
 30
0.0
 70
   128
 71
     6
 72
    -7
 73
    -1
  0
VERTEX
  5
1A74
  8
0
 10
0.0
 20
0.0
 30
0.0
 70
   128
 71
     5
 72
    -6
 73
    -1
  0
VERTEX
  5
1A75
  8
0
 10
0.0
 20
0.0
 30
0.0
 70
   128
 71
     4
 72
    -5
 73
    -1
  0
VERTEX
  5
1A76
  8
0
 10
0.0
 20
0.0
 30
0.0
 70
   128
 71
     3
 72
    -4
 73
    -1
  0
VERTEX
  5
1A77
  8
0
 10
0.0
 20
0.0
 30
0.0
 70
   128
 71
     2
 72
    -3
 73
     1
  0
SEQEND
  5
1E26
  8
0
  0
POLYLINE
  5
1A78
  8
0
 66
     1
 10
0.0
 20
0.0
 30
0.0
 70
    64
 71
    10
 72
     8
  0
VERTEX
  5
1A79
  8
0
 10
176.0
 20
102.9999999999999
 30
-39.00000000000007
 70
   192
  0
VERTEX
  5
1A7A
  8
0
 10
172.0
 20
102.9999999999999
 30
-39.00000000000007
 70
   192
  0
VERTEX
  5
1A7B
  8
0
 10
172.0
 20
102.9999999999999
 30
-42.00000000000007
 70
   192
  0
VERTEX
  5
1A7C
  8
0
 10
176.0
 20
102.9999999999999
 30
-42.00000000000007
 70
   192
  0
VERTEX
  5
1A7D
  8
0
 10
174.0
 20
100.9999999999999
 30
-42.00000000000007
 70
   192
  0
VERTEX
  5
1A7E
  8
0
 10
174.0
 20
100.9999999999999
 30
-39.00000000000007
 70
   192
  0
VERTEX
  5
1A7F
  8
0
 10
175.4142135623731
 20
101.5857864376269
 30
-42.00000000000007
 70
   192
  0
VERTEX
  5
1A80
  8
0
 10
175.4142135623731
 20
101.5857864376269
 30
-39.00000000000007
 70
   192
  0
VERTEX
  5
1A81
  8
0
 10
172.5857864376269
 20
101.5857864376269
 30
-42.00000000000007
 70
   192
  0
VERTEX
  5
1A82
  8
0
 10
172.5857864376269
 20
101.5857864376269
 30
-39.00000000000007
 70
   192
  0
VERTEX
  5
1A83
  8
0
 10
0.0
 20
0.0
 30
0.0
 70
   128
 71
     8
 72
     7
 73
    -4
  0
VERTEX
  5
1A84
  8
0
 10
0.0
 20
0.0
 30
0.0
 70
   128
 71
    -8
 72
     4
 73
     1
  0
VERTEX
  5
1A85
  8
0
 10
0.0
 20
0.0
 30
0.0
 70
   128
 71
     6
 72
     5
 73
    -7
  0
VERTEX
  5
1A86
  8
0
 10
0.0
 20
0.0
 30
0.0
 70
   128
 71
    -6
 72
     7
 73
     8
  0
VERTEX
  5
1A87
  8
0
 10
0.0
 20
0.0
 30
0.0
 70
   128
 71
    10
 72
     9
 73
    -5
  0
VERTEX
  5
1A88
  8
0
 10
0.0
 20
0.0
 30
0.0
 70
   128
 71
   -10
 72
     5
 73
     6
  0
VERTEX
  5
1A89
  8
0
 10
0.0
 20
0.0
 30
0.0
 70
   128
 71
     2
 72
     3
 73
    -9
  0
VERTEX
  5
1A8A
  8
0
 10
0.0
 20
0.0
 30
0.0
 70
   128
 71
    -2
 72
     9
 73
    10
  0
SEQEND
  5
1E27
  8
0
  0
POLYLINE
  5
1A8B
  8
0
 66
     1
 10
0.0
 20
0.0
 30
0.0
 70
    64
 71
     8
 72
     6
  0
VERTEX
  5
1A8C
  8
0
 10
172.0
 20
102.9999999999999
 30
-39.00000000000007
 70
   192
  0
VERTEX
  5
1A8D
  8
0
 10
172.5857864376269
 20
101.5857864376269
 30
-39.00000000000007
 70
   192
  0
VERTEX
  5
1A8E
  8
0
 10
174.0
 20
100.9999999999999
 30
-39.00000000000007
 70
   192
  0
VERTEX
  5
1A8F
  8
0
 10
175.4142135623731
 20
101.5857864376269
 30
-39.00000000000007
 70
   192
  0
VERTEX
  5
1A90
  8
0
 10
176.0
 20
102.9999999999999
 30
-39.00000000000007
 70
   192
  0
VERTEX
  5
1A91
  8
0
 10
175.4142135623731
 20
104.414213562373
 30
-39.00000000000007
 70
   192
  0
VERTEX
  5
1A92
  8
0
 10
174.0
 20
104.9999999999999
 30
-39.00000000000007
 70
   192
  0
VERTEX
  5
1A93
  8
0
 10
172.5857864376269
 20
104.414213562373
 30
-39.00000000000007
 70
   192
  0
VERTEX
  5
1A94
  8
0
 10
0.0
 20
0.0
 30
0.0
 70
   128
 71
     7
 72
     8
 73
    -1
  0
VERTEX
  5
1A95
  8
0
 10
0.0
 20
0.0
 30
0.0
 70
   128
 71
     6
 72
    -7
 73
    -1
  0
VERTEX
  5
1A96
  8
0
 10
0.0
 20
0.0
 30
0.0
 70
   128
 71
     5
 72
    -6
 73
    -1
  0
VERTEX
  5
1A97
  8
0
 10
0.0
 20
0.0
 30
0.0
 70
   128
 71
     4
 72
    -5
 73
    -1
  0
VERTEX
  5
1A98
  8
0
 10
0.0
 20
0.0
 30
0.0
 70
   128
 71
     3
 72
    -4
 73
    -1
  0
VERTEX
  5
1A99
  8
0
 10
0.0
 20
0.0
 30
0.0
 70
   128
 71
     2
 72
    -3
 73
     1
  0
SEQEND
  5
1E28
  8
0
  0
ENDBLK
  5
1E10
  8
0
  0
BLOCK
  8
0
  2
*X10
 70
     1
 10
0.0
 20
0.0
 30
0.0
  3
*X10
  1

  0
POLYLINE
  5
1A9B
  8
0
 66
     1
 10
0.0
 20
0.0
 30
0.0
 70
    64
 71
     4
 72
     2
  0
VERTEX
  5
1A9C
  8
0
 10
-284.0000000000001
 20
682.0
 30
-62.00000000000001
 70
   192
  0
VERTEX
  5
1A9D
  8
0
 10
-284.0000000000001
 20
682.0
 30
-2.000000000000016
 70
   192
  0
VERTEX
  5
1A9E
  8
0
 10
-284.0000000000001
 20
647.0000000000001
 30
-1.99999999999995
 70
   192
  0
VERTEX
  5
1A9F
  8
0
 10
-284.0000000000001
 20
622.0000000000001
 30
-62.00000000000001
 70
   192
  0
VERTEX
  5
1AA0
  8
0
 10
0.0
 20
0.0
 30
0.0
 70
   128
 71
     1
 72
     4
 73
    -3
  0
VERTEX
  5
1AA1
  8
0
 10
0.0
 20
0.0
 30
0.0
 70
   128
 71
    -1
 72
     3
 73
     2
  0
SEQEND
  5
1E2B
  8
0
  0
POLYLINE
  5
1AA2
  8
0
 66
     1
 10
0.0
 20
0.0
 30
0.0
 70
    64
 71
     4
 72
     2
  0
VERTEX
  5
1AA3
  8
0
 10
-264.0
 20
682.0
 30
-2.000000000000016
 70
   192
  0
VERTEX
  5
1AA4
  8
0
 10
-264.0
 20
682.0
 30
-62.00000000000001
 70
   192
  0
VERTEX
  5
1AA5
  8
0
 10
-264.0
 20
622.0000000000001
 30
-62.00000000000001
 70
   192
  0
VERTEX
  5
1AA6
  8
0
 10
-264.0
 20
647.0000000000001
 30
-2.000000000000016
 70
   192
  0
VERTEX
  5
1AA7
  8
0
 10
0.0
 20
0.0
 30
0.0
 70
   128
 71
     1
 72
     4
 73
    -3
  0
VERTEX
  5
1AA8
  8
0
 10
0.0
 20
0.0
 30
0.0
 70
   128
 71
    -1
 72
     3
 73
     2
  0
SEQEND
  5
1E2C
  8
0
  0
POLYLINE
  5
1AA9
  8
0
 66
     1
 10
0.0
 20
0.0
 30
0.0
 70
    64
 71
     4
 72
     2
  0
VERTEX
  5
1AAA
  8
0
 10
-264.0
 20
682.0
 30
-62.00000000000001
 70
   192
  0
VERTEX
  5
1AAB
  8
0
 10
-264.0
 20
682.0
 30
-2.000000000000016
 70
   192
  0
VERTEX
  5
1AAC
  8
0
 10
-284.0000000000001
 20
682.0
 30
-2.000000000000016
 70
   192
  0
VERTEX
  5
1AAD
  8
0
 10
-284.0000000000001
 20
682.0
 30
-62.00000000000001
 70
   192
  0
VERTEX
  5
1AAE
  8
0
 10
0.0
 20
0.0
 30
0.0
 70
   128
 71
     1
 72
     4
 73
    -3
  0
VERTEX
  5
1AAF
  8
0
 10
0.0
 20
0.0
 30
0.0
 70
   128
 71
    -1
 72
     3
 73
     2
  0
SEQEND
  5
1E2D
  8
0
  0
POLYLINE
  5
1AB0
  8
0
 66
     1
 10
0.0
 20
0.0
 30
0.0
 70
    64
 71
     4
 72
     2
  0
VERTEX
  5
1AB1
  8
0
 10
-284.0000000000001
 20
647.0000000000001
 30
-1.999999999999946
 70
   192
  0
VERTEX
  5
1AB2
  8
0
 10
-264.0
 20
647.0000000000001
 30
-1.999999999999946
 70
   192
  0
VERTEX
  5
1AB3
  8
0
 10
-264.0
 20
682.0
 30
-2.000000000000016
 70
   192
  0
VERTEX
  5
1AB4
  8
0
 10
-284.0000000000001
 20
682.0
 30
-2.000000000000016
 70
   192
  0
VERTEX
  5
1AB5
  8
0
 10
0.0
 20
0.0
 30
0.0
 70
   128
 71
     3
 72
     4
 73
    -1
  0
VERTEX
  5
1AB6
  8
0
 10
0.0
 20
0.0
 30
0.0
 70
   128
 71
     2
 72
    -3
 73
     1
  0
SEQEND
  5
1E2E
  8
0
  0
POLYLINE
  5
1AB7
  8
0
 66
     1
 10
0.0
 20
0.0
 30
0.0
 70
    64
 71
     4
 72
     2
  0
VERTEX
  5
1AB8
  8
0
 10
-284.0000000000001
 20
622.0000000000001
 30
-62.00000000000001
 70
   192
  0
VERTEX
  5
1AB9
  8
0
 10
-264.0
 20
622.0000000000001
 30
-62.00000000000001
 70
   192
  0
VERTEX
  5
1ABA
  8
0
 10
-264.0
 20
682.0
 30
-62.00000000000001
 70
   192
  0
VERTEX
  5
1ABB
  8
0
 10
-284.0000000000001
 20
682.0
 30
-62.00000000000001
 70
   192
  0
VERTEX
  5
1ABC
  8
0
 10
0.0
 20
0.0
 30
0.0
 70
   128
 71
     1
 72
     4
 73
    -3
  0
VERTEX
  5
1ABD
  8
0
 10
0.0
 20
0.0
 30
0.0
 70
   128
 71
    -1
 72
     3
 73
     2
  0
SEQEND
  5
1E2F
  8
0
  0
POLYLINE
  5
1ABE
  8
0
 66
     1
 10
0.0
 20
0.0
 30
0.0
 70
    64
 71
     4
 72
     2
  0
VERTEX
  5
1ABF
  8
0
 10
-264.0
 20
647.0000000000001
 30
-1.999999999999952
 70
   192
  0
VERTEX
  5
1AC0
  8
0
 10
-264.0
 20
622.0000000000001
 30
-62.00000000000001
 70
   192
  0
VERTEX
  5
1AC1
  8
0
 10
-284.0000000000001
 20
622.0000000000001
 30
-62.00000000000001
 70
   192
  0
VERTEX
  5
1AC2
  8
0
 10
-284.0000000000001
 20
647.0000000000001
 30
-1.999999999999946
 70
   192
  0
VERTEX
  5
1AC3
  8
0
 10
0.0
 20
0.0
 30
0.0
 70
   128
 71
     1
 72
     4
 73
    -3
  0
VERTEX
  5
1AC4
  8
0
 10
0.0
 20
0.0
 30
0.0
 70
   128
 71
    -1
 72
     3
 73
     2
  0
SEQEND
  5
1E30
  8
0
  0
ENDBLK
  5
1E2A
  8
0
  0
BLOCK
  8
0
  2
*X11
 70
     1
 10
0.0
 20
0.0
 30
0.0
  3
*X11
  1

  0
POLYLINE
  5
1AC6
  8
0
 66
     1
 10
0.0
 20
0.0
 30
0.0
 70
    64
 71
     4
 72
     2
  0
VERTEX
  5
1AC7
  8
0
 10
284.0000000000001
 20
682.0
 30
-62.00000000000001
 70
   192
  0
VERTEX
  5
1AC8
  8
0
 10
284.0000000000001
 20
682.0
 30
-2.000000000000016
 70
   192
  0
VERTEX
  5
1AC9
  8
0
 10
264.0
 20
682.0000000000001
 30
-2.000000000000016
 70
   192
  0
VERTEX
  5
1ACA
  8
0
 10
264.0
 20
682.0000000000001
 30
-62.00000000000001
 70
   192
  0
VERTEX
  5
1ACB
  8
0
 10
0.0
 20
0.0
 30
0.0
 70
   128
 71
     1
 72
     4
 73
    -3
  0
VERTEX
  5
1ACC
  8
0
 10
0.0
 20
0.0
 30
0.0
 70
   128
 71
    -1
 72
     3
 73
     2
  0
SEQEND
  5
1E33
  8
0
  0
POLYLINE
  5
1ACD
  8
0
 66
     1
 10
0.0
 20
0.0
 30
0.0
 70
    64
 71
     4
 72
     2
  0
VERTEX
  5
1ACE
  8
0
 10
264.0
 20
682.0000000000001
 30
-62.00000000000001
 70
   192
  0
VERTEX
  5
1ACF
  8
0
 10
264.0
 20
682.0000000000001
 30
-2.000000000000016
 70
   192
  0
VERTEX
  5
1AD0
  8
0
 10
264.0
 20
647.0000000000001
 30
-1.999999999999947
 70
   192
  0
VERTEX
  5
1AD1
  8
0
 10
264.0
 20
622.0000000000002
 30
-62.00000000000001
 70
   192
  0
VERTEX
  5
1AD2
  8
0
 10
0.0
 20
0.0
 30
0.0
 70
   128
 71
     1
 72
     4
 73
    -3
  0
VERTEX
  5
1AD3
  8
0
 10
0.0
 20
0.0
 30
0.0
 70
   128
 71
    -1
 72
     3
 73
     2
  0
SEQEND
  5
1E34
  8
0
  0
POLYLINE
  5
1AD4
  8
0
 66
     1
 10
0.0
 20
0.0
 30
0.0
 70
    64
 71
     4
 72
     2
  0
VERTEX
  5
1AD5
  8
0
 10
284.0000000000001
 20
682.0
 30
-2.000000000000016
 70
   192
  0
VERTEX
  5
1AD6
  8
0
 10
284.0000000000001
 20
682.0
 30
-62.00000000000001
 70
   192
  0
VERTEX
  5
1AD7
  8
0
 10
284.0000000000001
 20
622.0000000000001
 30
-62.00000000000001
 70
   192
  0
VERTEX
  5
1AD8
  8
0
 10
284.0000000000001
 20
647.0000000000001
 30
-2.000000000000016
 70
   192
  0
VERTEX
  5
1AD9
  8
0
 10
0.0
 20
0.0
 30
0.0
 70
   128
 71
     1
 72
     4
 73
    -3
  0
VERTEX
  5
1ADA
  8
0
 10
0.0
 20
0.0
 30
0.0
 70
   128
 71
    -1
 72
     3
 73
     2
  0
SEQEND
  5
1E35
  8
0
  0
POLYLINE
  5
1ADB
  8
0
 66
     1
 10
0.0
 20
0.0
 30
0.0
 70
    64
 71
     4
 72
     2
  0
VERTEX
  5
1ADC
  8
0
 10
264.0
 20
647.0000000000001
 30
-1.999999999999946
 70
   192
  0
VERTEX
  5
1ADD
  8
0
 10
284.0000000000001
 20
647.0000000000001
 30
-1.999999999999946
 70
   192
  0
VERTEX
  5
1ADE
  8
0
 10
284.0000000000001
 20
682.0
 30
-2.000000000000016
 70
   192
  0
VERTEX
  5
1ADF
  8
0
 10
264.0
 20
682.0000000000001
 30
-2.000000000000016
 70
   192
  0
VERTEX
  5
1AE0
  8
0
 10
0.0
 20
0.0
 30
0.0
 70
   128
 71
     3
 72
     4
 73
    -1
  0
VERTEX
  5
1AE1
  8
0
 10
0.0
 20
0.0
 30
0.0
 70
   128
 71
     2
 72
    -3
 73
     1
  0
SEQEND
  5
1E36
  8
0
  0
POLYLINE
  5
1AE2
  8
0
 66
     1
 10
0.0
 20
0.0
 30
0.0
 70
    64
 71
     4
 72
     2
  0
VERTEX
  5
1AE3
  8
0
 10
264.0
 20
682.0000000000001
 30
-62.00000000000001
 70
   192
  0
VERTEX
  5
1AE4
  8
0
 10
264.0
 20
622.0000000000002
 30
-62.00000000000001
 70
   192
  0
VERTEX
  5
1AE5
  8
0
 10
284.0000000000001
 20
622.0000000000001
 30
-62.00000000000001
 70
   192
  0
VERTEX
  5
1AE6
  8
0
 10
284.0000000000001
 20
682.0
 30
-62.00000000000001
 70
   192
  0
VERTEX
  5
1AE7
  8
0
 10
0.0
 20
0.0
 30
0.0
 70
   128
 71
     1
 72
     4
 73
    -3
  0
VERTEX
  5
1AE8
  8
0
 10
0.0
 20
0.0
 30
0.0
 70
   128
 71
    -1
 72
     3
 73
     2
  0
SEQEND
  5
1E37
  8
0
  0
POLYLINE
  5
1AE9
  8
0
 66
     1
 10
0.0
 20
0.0
 30
0.0
 70
    64
 71
     4
 72
     2
  0
VERTEX
  5
1AEA
  8
0
 10
264.0
 20
622.0000000000001
 30
-61.99999999999997
 70
   192
  0
VERTEX
  5
1AEB
  8
0
 10
264.0
 20
647.0000000000001
 30
-1.999999999999946
 70
   192
  0
VERTEX
  5
1AEC
  8
0
 10
284.0000000000001
 20
647.0000000000001
 30
-1.99999999999995
 70
   192
  0
VERTEX
  5
1AED
  8
0
 10
284.0000000000001
 20
622.0000000000002
 30
-62.00000000000001
 70
   192
  0
VERTEX
  5
1AEE
  8
0
 10
0.0
 20
0.0
 30
0.0
 70
   128
 71
     1
 72
     4
 73
    -3
  0
VERTEX
  5
1AEF
  8
0
 10
0.0
 20
0.0
 30
0.0
 70
   128
 71
    -1
 72
     3
 73
     2
  0
SEQEND
  5
1E38
  8
0
  0
ENDBLK
  5
1E32
  8
0
  0
BLOCK
  8
0
  2
*X12
 70
     1
 10
0.0
 20
0.0
 30
0.0
  3
*X12
  1

  0
POLYLINE
  5
1AF1
  8
0
 66
     1
 10
0.0
 20
0.0
 30
0.0
 70
    64
 71
     4
 72
     2
  0
VERTEX
  5
1AF2
  8
0
 10
-299.9999999999997
 20
700.5
 30
78.00000000000009
 70
   192
  0
VERTEX
  5
1AF3
  8
0
 10
-299.9999999999997
 20
700.5
 30
81.00000000000009
 70
   192
  0
VERTEX
  5
1AF4
  8
0
 10
-299.9999999999997
 20
0.4999999999999449
 30
81.00000000000009
 70
   192
  0
VERTEX
  5
1AF5
  8
0
 10
-299.9999999999997
 20
0.5
 30
78.00000000000009
 70
   192
  0
VERTEX
  5
1AF6
  8
0
 10
0.0
 20
0.0
 30
0.0
 70
   128
 71
     1
 72
     4
 73
    -3
  0
VERTEX
  5
1AF7
  8
0
 10
0.0
 20
0.0
 30
0.0
 70
   128
 71
    -1
 72
     3
 73
     2
  0
SEQEND
  5
1E3B
  8
0
  0
POLYLINE
  5
1AF8
  8
0
 66
     1
 10
0.0
 20
0.0
 30
0.0
 70
    64
 71
     4
 72
     2
  0
VERTEX
  5
1AF9
  8
0
 10
-299.9999999999997
 20
0.4999999999999449
 30
78.00000000000009
 70
   192
  0
VERTEX
  5
1AFA
  8
0
 10
-299.9999999999997
 20
0.4999999999999449
 30
81.00000000000009
 70
   192
  0
VERTEX
  5
1AFB
  8
0
 10
300.0000000000003
 20
0.4999999999999449
 30
81.00000000000009
 70
   192
  0
VERTEX
  5
1AFC
  8
0
 10
300.0000000000003
 20
0.4999999999999449
 30
78.00000000000009
 70
   192
  0
VERTEX
  5
1AFD
  8
0
 10
0.0
 20
0.0
 30
0.0
 70
   128
 71
     1
 72
     4
 73
    -3
  0
VERTEX
  5
1AFE
  8
0
 10
0.0
 20
0.0
 30
0.0
 70
   128
 71
    -1
 72
     3
 73
     2
  0
SEQEND
  5
1E3C
  8
0
  0
POLYLINE
  5
1AFF
  8
0
 66
     1
 10
0.0
 20
0.0
 30
0.0
 70
    64
 71
     4
 72
     2
  0
VERTEX
  5
1B00
  8
0
 10
300.0000000000003
 20
0.4999999999999449
 30
78.00000000000009
 70
   192
  0
VERTEX
  5
1B01
  8
0
 10
300.0000000000003
 20
0.4999999999999449
 30
81.00000000000009
 70
   192
  0
VERTEX
  5
1B02
  8
0
 10
300.0000000000003
 20
700.5
 30
81.00000000000009
 70
   192
  0
VERTEX
  5
1B03
  8
0
 10
300.0000000000003
 20
700.5
 30
78.00000000000009
 70
   192
  0
VERTEX
  5
1B04
  8
0
 10
0.0
 20
0.0
 30
0.0
 70
   128
 71
     1
 72
     4
 73
    -3
  0
VERTEX
  5
1B05
  8
0
 10
0.0
 20
0.0
 30
0.0
 70
   128
 71
    -1
 72
     3
 73
     2
  0
SEQEND
  5
1E3D
  8
0
  0
POLYLINE
  5
1B06
  8
0
 66
     1
 10
0.0
 20
0.0
 30
0.0
 70
    64
 71
     4
 72
     2
  0
VERTEX
  5
1B07
  8
0
 10
300.0000000000003
 20
700.5
 30
78.00000000000009
 70
   192
  0
VERTEX
  5
1B08
  8
0
 10
300.0000000000003
 20
700.5
 30
81.00000000000009
 70
   192
  0
VERTEX
  5
1B09
  8
0
 10
-299.9999999999997
 20
700.5
 30
81.00000000000009
 70
   192
  0
VERTEX
  5
1B0A
  8
0
 10
-299.9999999999997
 20
700.5
 30
78.00000000000009
 70
   192
  0
VERTEX
  5
1B0B
  8
0
 10
0.0
 20
0.0
 30
0.0
 70
   128
 71
     1
 72
     4
 73
    -3
  0
VERTEX
  5
1B0C
  8
0
 10
0.0
 20
0.0
 30
0.0
 70
   128
 71
    -1
 72
     3
 73
     2
  0
SEQEND
  5
1E3E
  8
0
  0
POLYLINE
  5
1B0D
  8
0
 66
     1
 10
0.0
 20
0.0
 30
0.0
 70
    64
 71
     4
 72
     2
  0
VERTEX
  5
1B0E
  8
0
 10
-299.9999999999997
 20
700.5
 30
81.00000000000009
 70
   192
  0
VERTEX
  5
1B0F
  8
0
 10
-299.9999999999997
 20
0.5
 30
81.00000000000009
 70
   192
  0
VERTEX
  5
1B10
  8
0
 10
300.0000000000003
 20
0.4999999999999449
 30
81.00000000000009
 70
   192
  0
VERTEX
  5
1B11
  8
0
 10
300.0000000000003
 20
700.5
 30
81.00000000000009
 70
   192
  0
VERTEX
  5
1B12
  8
0
 10
0.0
 20
0.0
 30
0.0
 70
   128
 71
     3
 72
     4
 73
    -1
  0
VERTEX
  5
1B13
  8
0
 10
0.0
 20
0.0
 30
0.0
 70
   128
 71
     2
 72
    -3
 73
     1
  0
SEQEND
  5
1E3F
  8
0
  0
POLYLINE
  5
1B14
  8
0
 66
     1
 10
0.0
 20
0.0
 30
0.0
 70
    64
 71
     4
 72
     2
  0
VERTEX
  5
1B15
  8
0
 10
-299.9999999999997
 20
0.4999999999999449
 30
78.00000000000009
 70
   192
  0
VERTEX
  5
1B16
  8
0
 10
300.0000000000003
 20
0.4999999999999449
 30
78.00000000000009
 70
   192
  0
VERTEX
  5
1B17
  8
0
 10
300.0000000000003
 20
700.5
 30
78.00000000000009
 70
   192
  0
VERTEX
  5
1B18
  8
0
 10
-299.9999999999997
 20
700.5
 30
78.00000000000009
 70
   192
  0
VERTEX
  5
1B19
  8
0
 10
0.0
 20
0.0
 30
0.0
 70
   128
 71
     1
 72
     4
 73
    -3
  0
VERTEX
  5
1B1A
  8
0
 10
0.0
 20
0.0
 30
0.0
 70
   128
 71
    -1
 72
     3
 73
     2
  0
SEQEND
  5
1E40
  8
0
  0
ENDBLK
  5
1E3A
  8
0
  0
BLOCK
  8
0
  2
*X13
 70
     1
 10
0.0
 20
0.0
 30
0.0
  3
*X13
  1

  0
POLYLINE
  5
1B1C
  8
0
 66
     1
 10
0.0
 20
0.0
 30
0.0
 70
    64
 71
     8
 72
     8
  0
VERTEX
  5
1B1D
  8
0
 10
-299.9999999999997
 20
0.4999999999999449
 30
78.00000000000011
 70
   192
  0
VERTEX
  5
1B1E
  8
0
 10
300.0000000000003
 20
0.4999999999999449
 30
78.00000000000004
 70
   192
  0
VERTEX
  5
1B1F
  8
0
 10
300.0000000000003
 20
0.4999999999999449
 30
62.00000000000005
 70
   192
  0
VERTEX
  5
1B20
  8
0
 10
-299.9999999999997
 20
0.4999999999999449
 30
62.00000000000012
 70
   192
  0
VERTEX
  5
1B21
  8
0
 10
-294.9999999999997
 20
0.4999999999999449
 30
63.75000000000009
 70
   192
  0
VERTEX
  5
1B22
  8
0
 10
-244.9999999999997
 20
0.4999999999999449
 30
63.75000000000009
 70
   192
  0
VERTEX
  5
1B23
  8
0
 10
-244.9999999999997
 20
0.4999999999999449
 30
76.25000000000009
 70
   192
  0
VERTEX
  5
1B24
  8
0
 10
-294.9999999999997
 20
0.4999999999999449
 30
76.25000000000009
 70
   192
  0
VERTEX
  5
1B25
  8
0
 10
0.0
 20
0.0
 30
0.0
 70
   128
 71
     6
 72
    -5
 73
    -4
  0
VERTEX
  5
1B26
  8
0
 10
0.0
 20
0.0
 30
0.0
 70
   128
 71
    -6
 72
     4
 73
    -3
  0
VERTEX
  5
1B27
  8
0
 10
0.0
 20
0.0
 30
0.0
 70
   128
 71
     3
 72
    -2
 73
    -7
  0
VERTEX
  5
1B28
  8
0
 10
0.0
 20
0.0
 30
0.0
 70
   128
 71
    -3
 72
     7
 73
    -6
  0
VERTEX
  5
1B29
  8
0
 10
0.0
 20
0.0
 30
0.0
 70
   128
 71
     2
 72
    -1
 73
    -7
  0
VERTEX
  5
1B2A
  8
0
 10
0.0
 20
0.0
 30
0.0
 70
   128
 71
    -1
 72
     8
 73
    -7
  0
VERTEX
  5
1B2B
  8
0
 10
0.0
 20
0.0
 30
0.0
 70
   128
 71
     1
 72
    -4
 73
    -5
  0
VERTEX
  5
1B2C
  8
0
 10
0.0
 20
0.0
 30
0.0
 70
   128
 71
    -1
 72
     5
 73
    -8
  0
SEQEND
  5
1E43
  8
0
  0
POLYLINE
  5
1B2D
  8
0
 66
     1
 10
0.0
 20
0.0
 30
0.0
 70
    64
 71
     4
 72
     2
  0
VERTEX
  5
1B2E
  8
0
 10
-299.9999999999997
 20
0.5
 30
62.00000000000012
 70
   192
  0
VERTEX
  5
1B2F
  8
0
 10
-299.9999999999997
 20
700.5
 30
62.00000000000012
 70
   192
  0
VERTEX
  5
1B30
  8
0
 10
-299.9999999999997
 20
700.5
 30
78.00000000000013
 70
   192
  0
VERTEX
  5
1B31
  8
0
 10
-299.9999999999997
 20
0.4999999999999449
 30
78.00000000000013
 70
   192
  0
VERTEX
  5
1B32
  8
0
 10
0.0
 20
0.0
 30
0.0
 70
   128
 71
     1
 72
     4
 73
    -3
  0
VERTEX
  5
1B33
  8
0
 10
0.0
 20
0.0
 30
0.0
 70
   128
 71
    -1
 72
     3
 73
     2
  0
SEQEND
  5
1E44
  8
0
  0
POLYLINE
  5
1B34
  8
0
 66
     1
 10
0.0
 20
0.0
 30
0.0
 70
    64
 71
     4
 72
     2
  0
VERTEX
  5
1B35
  8
0
 10
-299.9999999999997
 20
0.5
 30
78.00000000000013
 70
   192
  0
VERTEX
  5
1B36
  8
0
 10
-299.9999999999997
 20
700.5
 30
78.00000000000011
 70
   192
  0
VERTEX
  5
1B37
  8
0
 10
300.0000000000003
 20
700.5
 30
78.00000000000004
 70
   192
  0
VERTEX
  5
1B38
  8
0
 10
300.0000000000003
 20
0.4999999999999449
 30
78.00000000000004
 70
   192
  0
VERTEX
  5
1B39
  8
0
 10
0.0
 20
0.0
 30
0.0
 70
   128
 71
     1
 72
     4
 73
    -3
  0
VERTEX
  5
1B3A
  8
0
 10
0.0
 20
0.0
 30
0.0
 70
   128
 71
    -1
 72
     3
 73
     2
  0
SEQEND
  5
1E45
  8
0
  0
POLYLINE
  5
1B3B
  8
0
 66
     1
 10
0.0
 20
0.0
 30
0.0
 70
    64
 71
     4
 72
     2
  0
VERTEX
  5
1B3C
  8
0
 10
300.0000000000003
 20
0.5
 30
78.00000000000004
 70
   192
  0
VERTEX
  5
1B3D
  8
0
 10
300.0000000000003
 20
700.5
 30
78.00000000000004
 70
   192
  0
VERTEX
  5
1B3E
  8
0
 10
300.0000000000003
 20
700.5
 30
62.00000000000005
 70
   192
  0
VERTEX
  5
1B3F
  8
0
 10
300.0000000000003
 20
0.4999999999999449
 30
62.00000000000005
 70
   192
  0
VERTEX
  5
1B40
  8
0
 10
0.0
 20
0.0
 30
0.0
 70
   128
 71
     1
 72
     4
 73
    -3
  0
VERTEX
  5
1B41
  8
0
 10
0.0
 20
0.0
 30
0.0
 70
   128
 71
    -1
 72
     3
 73
     2
  0
SEQEND
  5
1E46
  8
0
  0
POLYLINE
  5
1B42
  8
0
 66
     1
 10
0.0
 20
0.0
 30
0.0
 70
    64
 71
     4
 72
     2
  0
VERTEX
  5
1B43
  8
0
 10
300.0000000000003
 20
0.5
 30
62.00000000000005
 70
   192
  0
VERTEX
  5
1B44
  8
0
 10
300.0000000000003
 20
700.5
 30
62.00000000000005
 70
   192
  0
VERTEX
  5
1B45
  8
0
 10
-299.9999999999997
 20
700.5
 30
62.00000000000012
 70
   192
  0
VERTEX
  5
1B46
  8
0
 10
-299.9999999999997
 20
0.4999999999999449
 30
62.00000000000012
 70
   192
  0
VERTEX
  5
1B47
  8
0
 10
0.0
 20
0.0
 30
0.0
 70
   128
 71
     1
 72
     4
 73
    -3
  0
VERTEX
  5
1B48
  8
0
 10
0.0
 20
0.0
 30
0.0
 70
   128
 71
    -1
 72
     3
 73
     2
  0
SEQEND
  5
1E47
  8
0
  0
POLYLINE
  5
1B49
  8
0
 66
     1
 10
0.0
 20
0.0
 30
0.0
 70
    64
 71
     4
 72
     2
  0
VERTEX
  5
1B4A
  8
0
 10
-299.9999999999997
 20
700.5
 30
62.00000000000012
 70
   192
  0
VERTEX
  5
1B4B
  8
0
 10
-299.9999999999997
 20
700.5
 30
78.00000000000013
 70
   192
  0
VERTEX
  5
1B4C
  8
0
 10
300.0000000000003
 20
700.5
 30
78.00000000000004
 70
   192
  0
VERTEX
  5
1B4D
  8
0
 10
300.0000000000003
 20
700.5
 30
62.00000000000005
 70
   192
  0
VERTEX
  5
1B4E
  8
0
 10
0.0
 20
0.0
 30
0.0
 70
   128
 71
     3
 72
     4
 73
    -1
  0
VERTEX
  5
1B4F
  8
0
 10
0.0
 20
0.0
 30
0.0
 70
   128
 71
     2
 72
    -3
 73
     1
  0
SEQEND
  5
1E48
  8
0
  0
POLYLINE
  5
1B50
  8
0
 66
     1
 10
0.0
 20
0.0
 30
0.0
 70
    64
 71
     4
 72
     2
  0
VERTEX
  5
1B51
  8
0
 10
-294.9999999999997
 20
0.4999999999999449
 30
76.25000000000009
 70
   192
  0
VERTEX
  5
1B52
  8
0
 10
-294.9999999999997
 20
0.4999999999999449
 30
63.75000000000009
 70
   192
  0
VERTEX
  5
1B53
  8
0
 10
-293.6834750241257
 20
-9.500000000000062
 30
65.06652497587405
 70
   192
  0
VERTEX
  5
1B54
  8
0
 10
-293.6834750241256
 20
-9.500000000000055
 30
74.93347502412612
 70
   192
  0
VERTEX
  5
1B55
  8
0
 10
0.0
 20
0.0
 30
0.0
 70
   128
 71
     3
 72
     4
 73
    -1
  0
VERTEX
  5
1B56
  8
0
 10
0.0
 20
0.0
 30
0.0
 70
   128
 71
     2
 72
    -3
 73
     1
  0
SEQEND
  5
1E49
  8
0
  0
POLYLINE
  5
1B57
  8
0
 66
     1
 10
0.0
 20
0.0
 30
0.0
 70
    64
 71
     4
 72
     2
  0
VERTEX
  5
1B58
  8
0
 10
-294.9999999999997
 20
0.4999999999999449
 30
63.75000000000009
 70
   192
  0
VERTEX
  5
1B59
  8
0
 10
-244.9999999999997
 20
0.4999999999999449
 30
63.75000000000009
 70
   192
  0
VERTEX
  5
1B5A
  8
0
 10
-246.3165249758736
 20
-9.500000000000055
 30
65.06652497587405
 70
   192
  0
VERTEX
  5
1B5B
  8
0
 10
-293.6834750241256
 20
-9.500000000000055
 30
65.06652497587405
 70
   192
  0
VERTEX
  5
1B5C
  8
0
 10
0.0
 20
0.0
 30
0.0
 70
   128
 71
     3
 72
     4
 73
    -1
  0
VERTEX
  5
1B5D
  8
0
 10
0.0
 20
0.0
 30
0.0
 70
   128
 71
     2
 72
    -3
 73
     1
  0
SEQEND
  5
1E4A
  8
0
  0
POLYLINE
  5
1B5E
  8
0
 66
     1
 10
0.0
 20
0.0
 30
0.0
 70
    64
 71
     4
 72
     2
  0
VERTEX
  5
1B5F
  8
0
 10
-244.9999999999997
 20
0.4999999999999449
 30
63.75000000000009
 70
   192
  0
VERTEX
  5
1B60
  8
0
 10
-244.9999999999997
 20
0.4999999999999449
 30
76.25000000000009
 70
   192
  0
VERTEX
  5
1B61
  8
0
 10
-246.3165249758736
 20
-9.500000000000057
 30
74.93347502412611
 70
   192
  0
VERTEX
  5
1B62
  8
0
 10
-246.3165249758736
 20
-9.500000000000055
 30
65.06652497587405
 70
   192
  0
VERTEX
  5
1B63
  8
0
 10
0.0
 20
0.0
 30
0.0
 70
   128
 71
     3
 72
     4
 73
    -1
  0
VERTEX
  5
1B64
  8
0
 10
0.0
 20
0.0
 30
0.0
 70
   128
 71
     2
 72
    -3
 73
     1
  0
SEQEND
  5
1E4B
  8
0
  0
POLYLINE
  5
1B65
  8
0
 66
     1
 10
0.0
 20
0.0
 30
0.0
 70
    64
 71
     4
 72
     2
  0
VERTEX
  5
1B66
  8
0
 10
-244.9999999999997
 20
0.4999999999999449
 30
76.25000000000009
 70
   192
  0
VERTEX
  5
1B67
  8
0
 10
-294.9999999999997
 20
0.4999999999999449
 30
76.25000000000009
 70
   192
  0
VERTEX
  5
1B68
  8
0
 10
-293.6834750241257
 20
-9.500000000000062
 30
74.93347502412612
 70
   192
  0
VERTEX
  5
1B69
  8
0
 10
-246.3165249758736
 20
-9.500000000000055
 30
74.93347502412612
 70
   192
  0
VERTEX
  5
1B6A
  8
0
 10
0.0
 20
0.0
 30
0.0
 70
   128
 71
     3
 72
     4
 73
    -1
  0
VERTEX
  5
1B6B
  8
0
 10
0.0
 20
0.0
 30
0.0
 70
   128
 71
     2
 72
    -3
 73
     1
  0
SEQEND
  5
1E4C
  8
0
  0
POLYLINE
  5
1B6C
  8
0
 66
     1
 10
0.0
 20
0.0
 30
0.0
 70
    64
 71
     4
 72
     2
  0
VERTEX
  5
1B6D
  8
0
 10
-293.6834750241256
 20
-9.500000000000055
 30
74.93347502412612
 70
   192
  0
VERTEX
  5
1B6E
  8
0
 10
-293.6834750241256
 20
-9.500000000000055
 30
65.06652497587405
 70
   192
  0
VERTEX
  5
1B6F
  8
0
 10
-246.3165249758736
 20
-9.500000000000055
 30
65.06652497587405
 70
   192
  0
VERTEX
  5
1B70
  8
0
 10
-246.3165249758736
 20
-9.500000000000055
 30
74.93347502412612
 70
   192
  0
VERTEX
  5
1B71
  8
0
 10
0.0
 20
0.0
 30
0.0
 70
   128
 71
     3
 72
     4
 73
    -1
  0
VERTEX
  5
1B72
  8
0
 10
0.0
 20
0.0
 30
0.0
 70
   128
 71
     2
 72
    -3
 73
     1
  0
SEQEND
  5
1E4D
  8
0
  0
ENDBLK
  5
1E42
  8
0
  0
BLOCK
  8
0
  2
*X14
 70
     1
 10
0.0
 20
0.0
 30
0.0
  3
*X14
  1

  0
POLYLINE
  5
1B74
  8
0
 66
     1
 10
0.0
 20
0.0
 30
0.0
 70
    64
 71
     4
 72
     2
  0
VERTEX
  5
1B75
  8
0
 10
-281.4999999999999
 20
527.9999999999999
 30
-61.99999999999988
 70
   192
  0
VERTEX
  5
1B76
  8
0
 10
-281.4999999999999
 20
532.9999999999999
 30
-61.99999999999988
 70
   192
  0
VERTEX
  5
1B77
  8
0
 10
-281.4999999999999
 20
532.9999999999999
 30
58.00000000000012
 70
   192
  0
VERTEX
  5
1B78
  8
0
 10
-281.4999999999999
 20
527.9999999999999
 30
58.00000000000012
 70
   192
  0
VERTEX
  5
1B79
  8
0
 10
0.0
 20
0.0
 30
0.0
 70
   128
 71
     1
 72
     4
 73
    -3
  0
VERTEX
  5
1B7A
  8
0
 10
0.0
 20
0.0
 30
0.0
 70
   128
 71
    -1
 72
     3
 73
     2
  0
SEQEND
  5
1E50
  8
0
  0
POLYLINE
  5
1B7B
  8
0
 66
     1
 10
0.0
 20
0.0
 30
0.0
 70
    64
 71
     4
 72
     2
  0
VERTEX
  5
1B7C
  8
0
 10
-281.4999999999999
 20
527.9999999999999
 30
58.00000000000012
 70
   192
  0
VERTEX
  5
1B7D
  8
0
 10
-281.4999999999999
 20
532.9999999999999
 30
58.00000000000012
 70
   192
  0
VERTEX
  5
1B7E
  8
0
 10
281.5000000000001
 20
532.9999999999999
 30
58.00000000000005
 70
   192
  0
VERTEX
  5
1B7F
  8
0
 10
281.5000000000001
 20
527.9999999999999
 30
58.00000000000005
 70
   192
  0
VERTEX
  5
1B80
  8
0
 10
0.0
 20
0.0
 30
0.0
 70
   128
 71
     1
 72
     4
 73
    -3
  0
VERTEX
  5
1B81
  8
0
 10
0.0
 20
0.0
 30
0.0
 70
   128
 71
    -1
 72
     3
 73
     2
  0
SEQEND
  5
1E51
  8
0
  0
POLYLINE
  5
1B82
  8
0
 66
     1
 10
0.0
 20
0.0
 30
0.0
 70
    64
 71
     4
 72
     2
  0
VERTEX
  5
1B83
  8
0
 10
281.5000000000001
 20
527.9999999999999
 30
58.00000000000005
 70
   192
  0
VERTEX
  5
1B84
  8
0
 10
281.5000000000001
 20
532.9999999999999
 30
58.00000000000005
 70
   192
  0
VERTEX
  5
1B85
  8
0
 10
281.5000000000001
 20
532.9999999999999
 30
-61.99999999999995
 70
   192
  0
VERTEX
  5
1B86
  8
0
 10
281.5000000000001
 20
527.9999999999999
 30
-61.99999999999995
 70
   192
  0
VERTEX
  5
1B87
  8
0
 10
0.0
 20
0.0
 30
0.0
 70
   128
 71
     1
 72
     4
 73
    -3
  0
VERTEX
  5
1B88
  8
0
 10
0.0
 20
0.0
 30
0.0
 70
   128
 71
    -1
 72
     3
 73
     2
  0
SEQEND
  5
1E52
  8
0
  0
POLYLINE
  5
1B89
  8
0
 66
     1
 10
0.0
 20
0.0
 30
0.0
 70
    64
 71
     4
 72
     2
  0
VERTEX
  5
1B8A
  8
0
 10
281.5000000000001
 20
527.9999999999999
 30
-61.99999999999995
 70
   192
  0
VERTEX
  5
1B8B
  8
0
 10
281.5000000000001
 20
532.9999999999999
 30
-61.99999999999995
 70
   192
  0
VERTEX
  5
1B8C
  8
0
 10
-281.4999999999999
 20
532.9999999999999
 30
-61.99999999999988
 70
   192
  0
VERTEX
  5
1B8D
  8
0
 10
-281.4999999999999
 20
527.9999999999999
 30
-61.99999999999988
 70
   192
  0
VERTEX
  5
1B8E
  8
0
 10
0.0
 20
0.0
 30
0.0
 70
   128
 71
     1
 72
     4
 73
    -3
  0
VERTEX
  5
1B8F
  8
0
 10
0.0
 20
0.0
 30
0.0
 70
   128
 71
    -1
 72
     3
 73
     2
  0
SEQEND
  5
1E53
  8
0
  0
POLYLINE
  5
1B90
  8
0
 66
     1
 10
0.0
 20
0.0
 30
0.0
 70
    64
 71
     4
 72
     2
  0
VERTEX
  5
1B91
  8
0
 10
-281.4999999999999
 20
532.9999999999999
 30
-61.99999999999988
 70
   192
  0
VERTEX
  5
1B92
  8
0
 10
-281.4999999999999
 20
532.9999999999999
 30
58.00000000000012
 70
   192
  0
VERTEX
  5
1B93
  8
0
 10
281.5000000000001
 20
532.9999999999999
 30
58.00000000000005
 70
   192
  0
VERTEX
  5
1B94
  8
0
 10
281.5000000000001
 20
532.9999999999999
 30
-61.99999999999995
 70
   192
  0
VERTEX
  5
1B95
  8
0
 10
0.0
 20
0.0
 30
0.0
 70
   128
 71
     3
 72
     4
 73
    -1
  0
VERTEX
  5
1B96
  8
0
 10
0.0
 20
0.0
 30
0.0
 70
   128
 71
     2
 72
    -3
 73
     1
  0
SEQEND
  5
1E54
  8
0
  0
POLYLINE
  5
1B97
  8
0
 66
     1
 10
0.0
 20
0.0
 30
0.0
 70
    64
 71
     4
 72
     2
  0
VERTEX
  5
1B98
  8
0
 10
-281.4999999999999
 20
527.9999999999999
 30
58.00000000000012
 70
   192
  0
VERTEX
  5
1B99
  8
0
 10
281.5000000000001
 20
527.9999999999999
 30
58.00000000000005
 70
   192
  0
VERTEX
  5
1B9A
  8
0
 10
281.5000000000001
 20
527.9999999999999
 30
-61.99999999999995
 70
   192
  0
VERTEX
  5
1B9B
  8
0
 10
-281.4999999999999
 20
527.9999999999999
 30
-61.99999999999988
 70
   192
  0
VERTEX
  5
1B9C
  8
0
 10
0.0
 20
0.0
 30
0.0
 70
   128
 71
     1
 72
     4
 73
    -3
  0
VERTEX
  5
1B9D
  8
0
 10
0.0
 20
0.0
 30
0.0
 70
   128
 71
    -1
 72
     3
 73
     2
  0
SEQEND
  5
1E55
  8
0
  0
ENDBLK
  5
1E4F
  8
0
  0
BLOCK
  8
0
  2
*X15
 70
     1
 10
0.0
 20
0.0
 30
0.0
  3
*X15
  1

  0
POLYLINE
  5
1B9F
  8
0
 66
     1
 10
0.0
 20
0.0
 30
0.0
 70
    64
 71
     4
 72
     2
  0
VERTEX
  5
1BA0
  8
0
 10
-281.4999999999999
 20
345.4999999999999
 30
-61.99999999999988
 70
   192
  0
VERTEX
  5
1BA1
  8
0
 10
-281.4999999999999
 20
350.4999999999999
 30
-61.99999999999988
 70
   192
  0
VERTEX
  5
1BA2
  8
0
 10
-281.4999999999999
 20
350.4999999999999
 30
58.00000000000012
 70
   192
  0
VERTEX
  5
1BA3
  8
0
 10
-281.4999999999999
 20
345.4999999999999
 30
58.00000000000012
 70
   192
  0
VERTEX
  5
1BA4
  8
0
 10
0.0
 20
0.0
 30
0.0
 70
   128
 71
     1
 72
     4
 73
    -3
  0
VERTEX
  5
1BA5
  8
0
 10
0.0
 20
0.0
 30
0.0
 70
   128
 71
    -1
 72
     3
 73
     2
  0
SEQEND
  5
1E58
  8
0
  0
POLYLINE
  5
1BA6
  8
0
 66
     1
 10
0.0
 20
0.0
 30
0.0
 70
    64
 71
     4
 72
     2
  0
VERTEX
  5
1BA7
  8
0
 10
-281.4999999999999
 20
345.4999999999999
 30
58.00000000000012
 70
   192
  0
VERTEX
  5
1BA8
  8
0
 10
-281.4999999999999
 20
350.4999999999999
 30
58.00000000000012
 70
   192
  0
VERTEX
  5
1BA9
  8
0
 10
281.5000000000001
 20
350.4999999999999
 30
58.00000000000005
 70
   192
  0
VERTEX
  5
1BAA
  8
0
 10
281.5000000000001
 20
345.4999999999999
 30
58.00000000000005
 70
   192
  0
VERTEX
  5
1BAB
  8
0
 10
0.0
 20
0.0
 30
0.0
 70
   128
 71
     1
 72
     4
 73
    -3
  0
VERTEX
  5
1BAC
  8
0
 10
0.0
 20
0.0
 30
0.0
 70
   128
 71
    -1
 72
     3
 73
     2
  0
SEQEND
  5
1E59
  8
0
  0
POLYLINE
  5
1BAD
  8
0
 66
     1
 10
0.0
 20
0.0
 30
0.0
 70
    64
 71
     4
 72
     2
  0
VERTEX
  5
1BAE
  8
0
 10
281.5000000000001
 20
345.4999999999999
 30
58.00000000000005
 70
   192
  0
VERTEX
  5
1BAF
  8
0
 10
281.5000000000001
 20
350.4999999999999
 30
58.00000000000005
 70
   192
  0
VERTEX
  5
1BB0
  8
0
 10
281.5000000000001
 20
350.4999999999999
 30
-61.99999999999995
 70
   192
  0
VERTEX
  5
1BB1
  8
0
 10
281.5000000000001
 20
345.4999999999999
 30
-61.99999999999995
 70
   192
  0
VERTEX
  5
1BB2
  8
0
 10
0.0
 20
0.0
 30
0.0
 70
   128
 71
     1
 72
     4
 73
    -3
  0
VERTEX
  5
1BB3
  8
0
 10
0.0
 20
0.0
 30
0.0
 70
   128
 71
    -1
 72
     3
 73
     2
  0
SEQEND
  5
1E5A
  8
0
  0
POLYLINE
  5
1BB4
  8
0
 66
     1
 10
0.0
 20
0.0
 30
0.0
 70
    64
 71
     4
 72
     2
  0
VERTEX
  5
1BB5
  8
0
 10
281.5000000000001
 20
345.4999999999999
 30
-61.99999999999995
 70
   192
  0
VERTEX
  5
1BB6
  8
0
 10
281.5000000000001
 20
350.4999999999999
 30
-61.99999999999995
 70
   192
  0
VERTEX
  5
1BB7
  8
0
 10
-281.4999999999999
 20
350.4999999999999
 30
-61.99999999999988
 70
   192
  0
VERTEX
  5
1BB8
  8
0
 10
-281.4999999999999
 20
345.4999999999999
 30
-61.99999999999988
 70
   192
  0
VERTEX
  5
1BB9
  8
0
 10
0.0
 20
0.0
 30
0.0
 70
   128
 71
     1
 72
     4
 73
    -3
  0
VERTEX
  5
1BBA
  8
0
 10
0.0
 20
0.0
 30
0.0
 70
   128
 71
    -1
 72
     3
 73
     2
  0
SEQEND
  5
1E5B
  8
0
  0
POLYLINE
  5
1BBB
  8
0
 66
     1
 10
0.0
 20
0.0
 30
0.0
 70
    64
 71
     4
 72
     2
  0
VERTEX
  5
1BBC
  8
0
 10
-281.4999999999999
 20
350.4999999999999
 30
-61.99999999999988
 70
   192
  0
VERTEX
  5
1BBD
  8
0
 10
-281.4999999999999
 20
350.4999999999999
 30
58.00000000000012
 70
   192
  0
VERTEX
  5
1BBE
  8
0
 10
281.5000000000001
 20
350.4999999999999
 30
58.00000000000005
 70
   192
  0
VERTEX
  5
1BBF
  8
0
 10
281.5000000000001
 20
350.4999999999999
 30
-61.99999999999995
 70
   192
  0
VERTEX
  5
1BC0
  8
0
 10
0.0
 20
0.0
 30
0.0
 70
   128
 71
     3
 72
     4
 73
    -1
  0
VERTEX
  5
1BC1
  8
0
 10
0.0
 20
0.0
 30
0.0
 70
   128
 71
     2
 72
    -3
 73
     1
  0
SEQEND
  5
1E5C
  8
0
  0
POLYLINE
  5
1BC2
  8
0
 66
     1
 10
0.0
 20
0.0
 30
0.0
 70
    64
 71
     4
 72
     2
  0
VERTEX
  5
1BC3
  8
0
 10
-281.4999999999999
 20
345.4999999999999
 30
58.00000000000012
 70
   192
  0
VERTEX
  5
1BC4
  8
0
 10
281.5000000000001
 20
345.4999999999999
 30
58.00000000000005
 70
   192
  0
VERTEX
  5
1BC5
  8
0
 10
281.5000000000001
 20
345.4999999999999
 30
-61.99999999999995
 70
   192
  0
VERTEX
  5
1BC6
  8
0
 10
-281.4999999999999
 20
345.4999999999999
 30
-61.99999999999988
 70
   192
  0
VERTEX
  5
1BC7
  8
0
 10
0.0
 20
0.0
 30
0.0
 70
   128
 71
     1
 72
     4
 73
    -3
  0
VERTEX
  5
1BC8
  8
0
 10
0.0
 20
0.0
 30
0.0
 70
   128
 71
    -1
 72
     3
 73
     2
  0
SEQEND
  5
1E5D
  8
0
  0
ENDBLK
  5
1E57
  8
0
  0
BLOCK
  8
0
  2
*X16
 70
     1
 10
0.0
 20
0.0
 30
0.0
  3
*X16
  1

  0
POLYLINE
  5
1BCA
  8
0
 66
     1
 10
0.0
 20
0.0
 30
0.0
 70
    64
 71
     4
 72
     2
  0
VERTEX
  5
1BCB
  8
0
 10
-281.4999999999999
 20
162.9999999999999
 30
-61.99999999999988
 70
   192
  0
VERTEX
  5
1BCC
  8
0
 10
-281.4999999999999
 20
167.9999999999999
 30
-61.99999999999988
 70
   192
  0
VERTEX
  5
1BCD
  8
0
 10
-281.4999999999999
 20
167.9999999999999
 30
58.00000000000012
 70
   192
  0
VERTEX
  5
1BCE
  8
0
 10
-281.4999999999999
 20
162.9999999999999
 30
58.00000000000012
 70
   192
  0
VERTEX
  5
1BCF
  8
0
 10
0.0
 20
0.0
 30
0.0
 70
   128
 71
     1
 72
     4
 73
    -3
  0
VERTEX
  5
1BD0
  8
0
 10
0.0
 20
0.0
 30
0.0
 70
   128
 71
    -1
 72
     3
 73
     2
  0
SEQEND
  5
1E60
  8
0
  0
POLYLINE
  5
1BD1
  8
0
 66
     1
 10
0.0
 20
0.0
 30
0.0
 70
    64
 71
     4
 72
     2
  0
VERTEX
  5
1BD2
  8
0
 10
-281.4999999999999
 20
162.9999999999999
 30
58.00000000000012
 70
   192
  0
VERTEX
  5
1BD3
  8
0
 10
-281.4999999999999
 20
167.9999999999999
 30
58.00000000000012
 70
   192
  0
VERTEX
  5
1BD4
  8
0
 10
281.5000000000001
 20
167.9999999999999
 30
58.00000000000005
 70
   192
  0
VERTEX
  5
1BD5
  8
0
 10
281.5000000000001
 20
162.9999999999999
 30
58.00000000000005
 70
   192
  0
VERTEX
  5
1BD6
  8
0
 10
0.0
 20
0.0
 30
0.0
 70
   128
 71
     1
 72
     4
 73
    -3
  0
VERTEX
  5
1BD7
  8
0
 10
0.0
 20
0.0
 30
0.0
 70
   128
 71
    -1
 72
     3
 73
     2
  0
SEQEND
  5
1E61
  8
0
  0
POLYLINE
  5
1BD8
  8
0
 66
     1
 10
0.0
 20
0.0
 30
0.0
 70
    64
 71
     4
 72
     2
  0
VERTEX
  5
1BD9
  8
0
 10
281.5000000000001
 20
162.9999999999999
 30
58.00000000000005
 70
   192
  0
VERTEX
  5
1BDA
  8
0
 10
281.5000000000001
 20
167.9999999999999
 30
58.00000000000005
 70
   192
  0
VERTEX
  5
1BDB
  8
0
 10
281.5000000000001
 20
167.9999999999999
 30
-61.99999999999995
 70
   192
  0
VERTEX
  5
1BDC
  8
0
 10
281.5000000000001
 20
162.9999999999999
 30
-61.99999999999995
 70
   192
  0
VERTEX
  5
1BDD
  8
0
 10
0.0
 20
0.0
 30
0.0
 70
   128
 71
     1
 72
     4
 73
    -3
  0
VERTEX
  5
1BDE
  8
0
 10
0.0
 20
0.0
 30
0.0
 70
   128
 71
    -1
 72
     3
 73
     2
  0
SEQEND
  5
1E62
  8
0
  0
POLYLINE
  5
1BDF
  8
0
 66
     1
 10
0.0
 20
0.0
 30
0.0
 70
    64
 71
     4
 72
     2
  0
VERTEX
  5
1BE0
  8
0
 10
281.5000000000001
 20
162.9999999999999
 30
-61.99999999999995
 70
   192
  0
VERTEX
  5
1BE1
  8
0
 10
281.5000000000001
 20
167.9999999999999
 30
-61.99999999999995
 70
   192
  0
VERTEX
  5
1BE2
  8
0
 10
-281.4999999999999
 20
167.9999999999999
 30
-61.99999999999988
 70
   192
  0
VERTEX
  5
1BE3
  8
0
 10
-281.4999999999999
 20
162.9999999999999
 30
-61.99999999999988
 70
   192
  0
VERTEX
  5
1BE4
  8
0
 10
0.0
 20
0.0
 30
0.0
 70
   128
 71
     1
 72
     4
 73
    -3
  0
VERTEX
  5
1BE5
  8
0
 10
0.0
 20
0.0
 30
0.0
 70
   128
 71
    -1
 72
     3
 73
     2
  0
SEQEND
  5
1E63
  8
0
  0
POLYLINE
  5
1BE6
  8
0
 66
     1
 10
0.0
 20
0.0
 30
0.0
 70
    64
 71
     4
 72
     2
  0
VERTEX
  5
1BE7
  8
0
 10
-281.4999999999999
 20
167.9999999999999
 30
-61.99999999999988
 70
   192
  0
VERTEX
  5
1BE8
  8
0
 10
-281.4999999999999
 20
167.9999999999999
 30
58.00000000000012
 70
   192
  0
VERTEX
  5
1BE9
  8
0
 10
281.5000000000001
 20
167.9999999999999
 30
58.00000000000005
 70
   192
  0
VERTEX
  5
1BEA
  8
0
 10
281.5000000000001
 20
167.9999999999999
 30
-61.99999999999995
 70
   192
  0
VERTEX
  5
1BEB
  8
0
 10
0.0
 20
0.0
 30
0.0
 70
   128
 71
     3
 72
     4
 73
    -1
  0
VERTEX
  5
1BEC
  8
0
 10
0.0
 20
0.0
 30
0.0
 70
   128
 71
     2
 72
    -3
 73
     1
  0
SEQEND
  5
1E64
  8
0
  0
POLYLINE
  5
1BED
  8
0
 66
     1
 10
0.0
 20
0.0
 30
0.0
 70
    64
 71
     4
 72
     2
  0
VERTEX
  5
1BEE
  8
0
 10
-281.4999999999999
 20
162.9999999999999
 30
58.00000000000012
 70
   192
  0
VERTEX
  5
1BEF
  8
0
 10
281.5000000000001
 20
162.9999999999999
 30
58.00000000000005
 70
   192
  0
VERTEX
  5
1BF0
  8
0
 10
281.5000000000001
 20
162.9999999999999
 30
-61.99999999999995
 70
   192
  0
VERTEX
  5
1BF1
  8
0
 10
-281.4999999999999
 20
162.9999999999999
 30
-61.99999999999988
 70
   192
  0
VERTEX
  5
1BF2
  8
0
 10
0.0
 20
0.0
 30
0.0
 70
   128
 71
     1
 72
     4
 73
    -3
  0
VERTEX
  5
1BF3
  8
0
 10
0.0
 20
0.0
 30
0.0
 70
   128
 71
    -1
 72
     3
 73
     2
  0
SEQEND
  5
1E65
  8
0
  0
ENDBLK
  5
1E5F
  8
0
  0
BLOCK
  8
0
  2
*X17
 70
     1
 10
0.0
 20
0.0
 30
0.0
  3
*X17
  1

  0
POLYLINE
  5
1BF5
  8
0
 66
     1
 10
0.0
 20
0.0
 30
0.0
 70
    64
 71
     4
 72
     2
  0
VERTEX
  5
1BF6
  8
0
 10
-20.50000000000011
 20
702.0000000000001
 30
32.00000000000005
 70
   192
  0
VERTEX
  5
1BF7
  8
0
 10
-20.50000000000011
 20
723.0000000000001
 30
32.00000000000005
 70
   192
  0
VERTEX
  5
1BF8
  8
0
 10
-20.5000000000001
 20
723.0000000000001
 30
47.00000000000005
 70
   192
  0
VERTEX
  5
1BF9
  8
0
 10
-20.5000000000001
 20
702.0000000000001
 30
47.00000000000005
 70
   192
  0
VERTEX
  5
1BFA
  8
0
 10
0.0
 20
0.0
 30
0.0
 70
   128
 71
     1
 72
     4
 73
    -3
  0
VERTEX
  5
1BFB
  8
0
 10
0.0
 20
0.0
 30
0.0
 70
   128
 71
    -1
 72
     3
 73
     2
  0
SEQEND
  5
1E68
  8
0
  0
POLYLINE
  5
1BFC
  8
0
 66
     1
 10
0.0
 20
0.0
 30
0.0
 70
    64
 71
     4
 72
     2
  0
VERTEX
  5
1BFD
  8
0
 10
-20.5000000000001
 20
702.0000000000001
 30
47.00000000000005
 70
   192
  0
VERTEX
  5
1BFE
  8
0
 10
-20.5000000000001
 20
723.0000000000001
 30
47.00000000000005
 70
   192
  0
VERTEX
  5
1BFF
  8
0
 10
20.49999999999982
 20
723.0000000000001
 30
47.00000000000005
 70
   192
  0
VERTEX
  5
1C00
  8
0
 10
20.49999999999983
 20
702.0000000000001
 30
47.00000000000005
 70
   192
  0
VERTEX
  5
1C01
  8
0
 10
0.0
 20
0.0
 30
0.0
 70
   128
 71
     1
 72
     4
 73
    -3
  0
VERTEX
  5
1C02
  8
0
 10
0.0
 20
0.0
 30
0.0
 70
   128
 71
    -1
 72
     3
 73
     2
  0
SEQEND
  5
1E69
  8
0
  0
POLYLINE
  5
1C03
  8
0
 66
     1
 10
0.0
 20
0.0
 30
0.0
 70
    64
 71
     4
 72
     2
  0
VERTEX
  5
1C04
  8
0
 10
20.49999999999982
 20
702.0000000000001
 30
47.00000000000005
 70
   192
  0
VERTEX
  5
1C05
  8
0
 10
20.49999999999982
 20
723.0000000000001
 30
47.00000000000005
 70
   192
  0
VERTEX
  5
1C06
  8
0
 10
20.49999999999982
 20
723.0000000000001
 30
32.00000000000005
 70
   192
  0
VERTEX
  5
1C07
  8
0
 10
20.49999999999982
 20
702.0000000000001
 30
32.00000000000005
 70
   192
  0
VERTEX
  5
1C08
  8
0
 10
0.0
 20
0.0
 30
0.0
 70
   128
 71
     1
 72
     4
 73
    -3
  0
VERTEX
  5
1C09
  8
0
 10
0.0
 20
0.0
 30
0.0
 70
   128
 71
    -1
 72
     3
 73
     2
  0
SEQEND
  5
1E6A
  8
0
  0
POLYLINE
  5
1C0A
  8
0
 66
     1
 10
0.0
 20
0.0
 30
0.0
 70
    64
 71
     4
 72
     2
  0
VERTEX
  5
1C0B
  8
0
 10
20.49999999999982
 20
702.0000000000001
 30
32.00000000000005
 70
   192
  0
VERTEX
  5
1C0C
  8
0
 10
20.49999999999982
 20
723.0000000000001
 30
32.00000000000005
 70
   192
  0
VERTEX
  5
1C0D
  8
0
 10
-20.50000000000011
 20
723.0000000000001
 30
32.00000000000005
 70
   192
  0
VERTEX
  5
1C0E
  8
0
 10
-20.50000000000011
 20
702.0000000000001
 30
32.00000000000005
 70
   192
  0
VERTEX
  5
1C0F
  8
0
 10
0.0
 20
0.0
 30
0.0
 70
   128
 71
     1
 72
     4
 73
    -3
  0
VERTEX
  5
1C10
  8
0
 10
0.0
 20
0.0
 30
0.0
 70
   128
 71
    -1
 72
     3
 73
     2
  0
SEQEND
  5
1E6B
  8
0
  0
POLYLINE
  5
1C11
  8
0
 66
     1
 10
0.0
 20
0.0
 30
0.0
 70
    64
 71
     4
 72
     2
  0
VERTEX
  5
1C12
  8
0
 10
-20.50000000000011
 20
723.0000000000001
 30
32.00000000000005
 70
   192
  0
VERTEX
  5
1C13
  8
0
 10
-20.5000000000001
 20
723.0000000000001
 30
47.00000000000005
 70
   192
  0
VERTEX
  5
1C14
  8
0
 10
20.49999999999983
 20
723.0000000000001
 30
47.00000000000005
 70
   192
  0
VERTEX
  5
1C15
  8
0
 10
20.49999999999982
 20
723.0000000000001
 30
32.00000000000005
 70
   192
  0
VERTEX
  5
1C16
  8
0
 10
0.0
 20
0.0
 30
0.0
 70
   128
 71
     3
 72
     4
 73
    -1
  0
VERTEX
  5
1C17
  8
0
 10
0.0
 20
0.0
 30
0.0
 70
   128
 71
     2
 72
    -3
 73
     1
  0
SEQEND
  5
1E6C
  8
0
  0
POLYLINE
  5
1C18
  8
0
 66
     1
 10
0.0
 20
0.0
 30
0.0
 70
    64
 71
     4
 72
     2
  0
VERTEX
  5
1C19
  8
0
 10
-20.5000000000001
 20
702.0000000000001
 30
47.00000000000005
 70
   192
  0
VERTEX
  5
1C1A
  8
0
 10
20.49999999999982
 20
702.0000000000001
 30
47.00000000000005
 70
   192
  0
VERTEX
  5
1C1B
  8
0
 10
20.49999999999982
 20
702.0000000000001
 30
32.00000000000005
 70
   192
  0
VERTEX
  5
1C1C
  8
0
 10
-20.50000000000011
 20
702.0000000000001
 30
32.00000000000005
 70
   192
  0
VERTEX
  5
1C1D
  8
0
 10
0.0
 20
0.0
 30
0.0
 70
   128
 71
     1
 72
     4
 73
    -3
  0
VERTEX
  5
1C1E
  8
0
 10
0.0
 20
0.0
 30
0.0
 70
   128
 71
    -1
 72
     3
 73
     2
  0
SEQEND
  5
1E6D
  8
0
  0
ENDBLK
  5
1E67
  8
0
  0
BLOCK
  8
0
  2
*X18
 70
     1
 10
0.0
 20
0.0
 30
0.0
  3
*X18
  1

  0
POLYLINE
  5
1C20
  8
0
 66
     1
 10
0.0
 20
0.0
 30
0.0
 70
    64
 71
    10
 72
     8
  0
VERTEX
  5
1C21
  8
0
 10
-31.2500000000001
 20
700.0000000000001
 30
41.00000000000006
 70
   192
  0
VERTEX
  5
1C22
  8
0
 10
-31.2500000000001
 20
700.0000000000001
 30
46.00000000000006
 70
   192
  0
VERTEX
  5
1C23
  8
0
 10
-31.2500000000001
 20
703.0000000000001
 30
46.00000000000006
 70
   192
  0
VERTEX
  5
1C24
  8
0
 10
-31.2500000000001
 20
703.0000000000001
 30
41.00000000000006
 70
   192
  0
VERTEX
  5
1C25
  8
0
 10
-33.7500000000001
 20
703.0000000000001
 30
43.50000000000006
 70
   192
  0
VERTEX
  5
1C26
  8
0
 10
-33.7500000000001
 20
700.0000000000001
 30
43.50000000000006
 70
   192
  0
VERTEX
  5
1C27
  8
0
 10
-33.01776695296647
 20
703.0000000000001
 30
41.73223304703369
 70
   192
  0
VERTEX
  5
1C28
  8
0
 10
-33.01776695296647
 20
700.0000000000001
 30
41.73223304703369
 70
   192
  0
VERTEX
  5
1C29
  8
0
 10
-33.01776695296647
 20
703.0000000000001
 30
45.26776695296643
 70
   192
  0
VERTEX
  5
1C2A
  8
0
 10
-33.01776695296647
 20
700.0000000000001
 30
45.26776695296643
 70
   192
  0
VERTEX
  5
1C2B
  8
0
 10
0.0
 20
0.0
 30
0.0
 70
   128
 71
     8
 72
     1
 73
    -4
  0
VERTEX
  5
1C2C
  8
0
 10
0.0
 20
0.0
 30
0.0
 70
   128
 71
     7
 72
    -8
 73
     4
  0
VERTEX
  5
1C2D
  8
0
 10
0.0
 20
0.0
 30
0.0
 70
   128
 71
     6
 72
     8
 73
    -7
  0
VERTEX
  5
1C2E
  8
0
 10
0.0
 20
0.0
 30
0.0
 70
   128
 71
     5
 72
    -6
 73
     7
  0
VERTEX
  5
1C2F
  8
0
 10
0.0
 20
0.0
 30
0.0
 70
   128
 71
    10
 72
     6
 73
    -5
  0
VERTEX
  5
1C30
  8
0
 10
0.0
 20
0.0
 30
0.0
 70
   128
 71
     9
 72
   -10
 73
     5
  0
VERTEX
  5
1C31
  8
0
 10
0.0
 20
0.0
 30
0.0
 70
   128
 71
     2
 72
    10
 73
    -9
  0
VERTEX
  5
1C32
  8
0
 10
0.0
 20
0.0
 30
0.0
 70
   128
 71
     3
 72
    -2
 73
     9
  0
SEQEND
  5
1E70
  8
0
  0
POLYLINE
  5
1C33
  8
0
 66
     1
 10
0.0
 20
0.0
 30
0.0
 70
    64
 71
    10
 72
     8
  0
VERTEX
  5
1C34
  8
0
 10
31.24999999999988
 20
700.0000000000001
 30
41.00000000000008
 70
   192
  0
VERTEX
  5
1C35
  8
0
 10
31.24999999999988
 20
700.0000000000001
 30
46.00000000000008
 70
   192
  0
VERTEX
  5
1C36
  8
0
 10
31.24999999999988
 20
703.0000000000001
 30
46.00000000000008
 70
   192
  0
VERTEX
  5
1C37
  8
0
 10
31.24999999999988
 20
703.0000000000001
 30
41.00000000000009
 70
   192
  0
VERTEX
  5
1C38
  8
0
 10
28.74999999999988
 20
703.0000000000001
 30
43.50000000000008
 70
   192
  0
VERTEX
  5
1C39
  8
0
 10
28.74999999999988
 20
700.0000000000001
 30
43.50000000000008
 70
   192
  0
VERTEX
  5
1C3A
  8
0
 10
29.48223304703351
 20
703.0000000000001
 30
41.73223304703371
 70
   192
  0
VERTEX
  5
1C3B
  8
0
 10
29.48223304703351
 20
700.0000000000001
 30
41.73223304703371
 70
   192
  0
VERTEX
  5
1C3C
  8
0
 10
29.48223304703351
 20
703.0000000000001
 30
45.26776695296645
 70
   192
  0
VERTEX
  5
1C3D
  8
0
 10
29.48223304703351
 20
700.0000000000001
 30
45.26776695296645
 70
   192
  0
VERTEX
  5
1C3E
  8
0
 10
0.0
 20
0.0
 30
0.0
 70
   128
 71
     8
 72
     1
 73
    -4
  0
VERTEX
  5
1C3F
  8
0
 10
0.0
 20
0.0
 30
0.0
 70
   128
 71
     7
 72
    -8
 73
     4
  0
VERTEX
  5
1C40
  8
0
 10
0.0
 20
0.0
 30
0.0
 70
   128
 71
     6
 72
     8
 73
    -7
  0
VERTEX
  5
1C41
  8
0
 10
0.0
 20
0.0
 30
0.0
 70
   128
 71
     5
 72
    -6
 73
     7
  0
VERTEX
  5
1C42
  8
0
 10
0.0
 20
0.0
 30
0.0
 70
   128
 71
    10
 72
     6
 73
    -5
  0
VERTEX
  5
1C43
  8
0
 10
0.0
 20
0.0
 30
0.0
 70
   128
 71
     9
 72
   -10
 73
     5
  0
VERTEX
  5
1C44
  8
0
 10
0.0
 20
0.0
 30
0.0
 70
   128
 71
     2
 72
    10
 73
    -9
  0
VERTEX
  5
1C45
  8
0
 10
0.0
 20
0.0
 30
0.0
 70
   128
 71
     3
 72
    -2
 73
     9
  0
SEQEND
  5
1E71
  8
0
  0
POLYLINE
  5
1C46
  8
0
 66
     1
 10
0.0
 20
0.0
 30
0.0
 70
    64
 71
    12
 72
    12
  0
VERTEX
  5
1C47
  8
0
 10
-22.50000000000011
 20
703.0000000000001
 30
53.00000000000006
 70
   192
  0
VERTEX
  5
1C48
  8
0
 10
-22.50000000000011
 20
703.0000000000001
 30
34.00000000000006
 70
   192
  0
VERTEX
  5
1C49
  8
0
 10
-40.0000000000001
 20
703.0000000000001
 30
34.00000000000006
 70
   192
  0
VERTEX
  5
1C4A
  8
0
 10
-40.0000000000001
 20
703.0000000000001
 30
53.00000000000006
 70
   192
  0
VERTEX
  5
1C4B
  8
0
 10
-31.2500000000001
 20
703.0000000000001
 30
41.00000000000006
 70
   192
  0
VERTEX
  5
1C4C
  8
0
 10
-29.48223304703373
 20
703.0000000000001
 30
41.73223304703369
 70
   192
  0
VERTEX
  5
1C4D
  8
0
 10
-28.7500000000001
 20
703.0000000000001
 30
43.50000000000006
 70
   192
  0
VERTEX
  5
1C4E
  8
0
 10
-29.48223304703373
 20
703.0000000000001
 30
45.26776695296643
 70
   192
  0
VERTEX
  5
1C4F
  8
0
 10
-31.2500000000001
 20
703.0000000000001
 30
46.00000000000006
 70
   192
  0
VERTEX
  5
1C50
  8
0
 10
-33.01776695296647
 20
703.0000000000001
 30
45.26776695296643
 70
   192
  0
VERTEX
  5
1C51
  8
0
 10
-33.7500000000001
 20
703.0000000000001
 30
43.50000000000006
 70
   192
  0
VERTEX
  5
1C52
  8
0
 10
-33.01776695296647
 20
703.0000000000001
 30
41.73223304703369
 70
   192
  0
VERTEX
  5
1C53
  8
0
 10
0.0
 20
0.0
 30
0.0
 70
   128
 71
    -2
 72
     5
 73
    -6
  0
VERTEX
  5
1C54
  8
0
 10
0.0
 20
0.0
 30
0.0
 70
   128
 71
     6
 72
    -7
 73
    -2
  0
VERTEX
  5
1C55
  8
0
 10
0.0
 20
0.0
 30
0.0
 70
   128
 71
    -8
 72
     1
 73
    -2
  0
VERTEX
  5
1C56
  8
0
 10
0.0
 20
0.0
 30
0.0
 70
   128
 71
     7
 72
    -8
 73
    -2
  0
VERTEX
  5
1C57
  8
0
 10
0.0
 20
0.0
 30
0.0
 70
   128
 71
     8
 72
    -9
 73
    -1
  0
VERTEX
  5
1C58
  8
0
 10
0.0
 20
0.0
 30
0.0
 70
   128
 71
   -10
 72
     4
 73
    -1
  0
VERTEX
  5
1C59
  8
0
 10
0.0
 20
0.0
 30
0.0
 70
   128
 71
     9
 72
   -10
 73
    -1
  0
VERTEX
  5
1C5A
  8
0
 10
0.0
 20
0.0
 30
0.0
 70
   128
 71
   -11
 72
     3
 73
    -4
  0
VERTEX
  5
1C5B
  8
0
 10
0.0
 20
0.0
 30
0.0
 70
   128
 71
    10
 72
   -11
 73
    -4
  0
VERTEX
  5
1C5C
  8
0
 10
0.0
 20
0.0
 30
0.0
 70
   128
 71
    11
 72
   -12
 73
    -3
  0
VERTEX
  5
1C5D
  8
0
 10
0.0
 20
0.0
 30
0.0
 70
   128
 71
    -5
 72
     2
 73
    -3
  0
VERTEX
  5
1C5E
  8
0
 10
0.0
 20
0.0
 30
0.0
 70
   128
 71
    12
 72
    -5
 73
    -3
  0
SEQEND
  5
1E72
  8
0
  0
POLYLINE
  5
1C5F
  8
0
 66
     1
 10
0.0
 20
0.0
 30
0.0
 70
    64
 71
     4
 72
     2
  0
VERTEX
  5
1C60
  8
0
 10
-40.0000000000001
 20
700.0000000000001
 30
34.00000000000006
 70
   192
  0
VERTEX
  5
1C61
  8
0
 10
-40.0000000000001
 20
703.0000000000001
 30
34.00000000000006
 70
   192
  0
VERTEX
  5
1C62
  8
0
 10
-40.0000000000001
 20
703.0000000000001
 30
53.00000000000006
 70
   192
  0
VERTEX
  5
1C63
  8
0
 10
-40.0000000000001
 20
700.0000000000001
 30
53.00000000000006
 70
   192
  0
VERTEX
  5
1C64
  8
0
 10
0.0
 20
0.0
 30
0.0
 70
   128
 71
     1
 72
     4
 73
    -3
  0
VERTEX
  5
1C65
  8
0
 10
0.0
 20
0.0
 30
0.0
 70
   128
 71
    -1
 72
     3
 73
     2
  0
SEQEND
  5
1E73
  8
0
  0
POLYLINE
  5
1C66
  8
0
 66
     1
 10
0.0
 20
0.0
 30
0.0
 70
    64
 71
     8
 72
     6
  0
VERTEX
  5
1C67
  8
0
 10
-40.0000000000001
 20
700.0000000000001
 30
53.00000000000006
 70
   192
  0
VERTEX
  5
1C68
  8
0
 10
-40.0000000000001
 20
703.0000000000001
 30
53.00000000000006
 70
   192
  0
VERTEX
  5
1C69
  8
0
 10
-22.50000000000011
 20
703.0000000000001
 30
53.00000000000006
 70
   192
  0
VERTEX
  5
1C6A
  8
0
 10
-22.50000000000011
 20
724.0000000000001
 30
53.00000000000006
 70
   192
  0
VERTEX
  5
1C6B
  8
0
 10
22.49999999999988
 20
724.0000000000001
 30
53.00000000000006
 70
   192
  0
VERTEX
  5
1C6C
  8
0
 10
22.49999999999988
 20
703.0000000000001
 30
53.00000000000005
 70
   192
  0
VERTEX
  5
1C6D
  8
0
 10
39.9999999999999
 20
703.0000000000001
 30
53.00000000000005
 70
   192
  0
VERTEX
  5
1C6E
  8
0
 10
39.9999999999999
 20
700.0000000000001
 30
53.00000000000005
 70
   192
  0
VERTEX
  5
1C6F
  8
0
 10
0.0
 20
0.0
 30
0.0
 70
   128
 71
     3
 72
     2
 73
    -1
  0
VERTEX
  5
1C70
  8
0
 10
0.0
 20
0.0
 30
0.0
 70
   128
 71
    -3
 72
    -1
 73
    -6
  0
VERTEX
  5
1C71
  8
0
 10
0.0
 20
0.0
 30
0.0
 70
   128
 71
     6
 72
     5
 73
    -4
  0
VERTEX
  5
1C72
  8
0
 10
0.0
 20
0.0
 30
0.0
 70
   128
 71
    -6
 72
     4
 73
    -3
  0
VERTEX
  5
1C73
  8
0
 10
0.0
 20
0.0
 30
0.0
 70
   128
 71
     1
 72
    -8
 73
    -6
  0
VERTEX
  5
1C74
  8
0
 10
0.0
 20
0.0
 30
0.0
 70
   128
 71
     8
 72
     7
 73
    -6
  0
SEQEND
  5
1E74
  8
0
  0
POLYLINE
  5
1C75
  8
0
 66
     1
 10
0.0
 20
0.0
 30
0.0
 70
    64
 71
     4
 72
     2
  0
VERTEX
  5
1C76
  8
0
 10
39.9999999999999
 20
700.0000000000001
 30
53.00000000000005
 70
   192
  0
VERTEX
  5
1C77
  8
0
 10
39.9999999999999
 20
703.0000000000001
 30
53.00000000000005
 70
   192
  0
VERTEX
  5
1C78
  8
0
 10
39.9999999999999
 20
703.0000000000001
 30
34.00000000000006
 70
   192
  0
VERTEX
  5
1C79
  8
0
 10
39.9999999999999
 20
700.0000000000001
 30
34.00000000000006
 70
   192
  0
VERTEX
  5
1C7A
  8
0
 10
0.0
 20
0.0
 30
0.0
 70
   128
 71
     1
 72
     4
 73
    -3
  0
VERTEX
  5
1C7B
  8
0
 10
0.0
 20
0.0
 30
0.0
 70
   128
 71
    -1
 72
     3
 73
     2
  0
SEQEND
  5
1E75
  8
0
  0
POLYLINE
  5
1C7C
  8
0
 66
     1
 10
0.0
 20
0.0
 30
0.0
 70
    64
 71
     4
 72
     2
  0
VERTEX
  5
1C7D
  8
0
 10
39.9999999999999
 20
700.0000000000001
 30
34.00000000000006
 70
   192
  0
VERTEX
  5
1C7E
  8
0
 10
39.9999999999999
 20
703.0000000000001
 30
34.00000000000006
 70
   192
  0
VERTEX
  5
1C7F
  8
0
 10
22.49999999999988
 20
703.0000000000001
 30
34.00000000000006
 70
   192
  0
VERTEX
  5
1C80
  8
0
 10
22.49999999999988
 20
700.0000000000001
 30
34.00000000000006
 70
   192
  0
VERTEX
  5
1C81
  8
0
 10
0.0
 20
0.0
 30
0.0
 70
   128
 71
     1
 72
     4
 73
    -3
  0
VERTEX
  5
1C82
  8
0
 10
0.0
 20
0.0
 30
0.0
 70
   128
 71
    -1
 72
     3
 73
     2
  0
SEQEND
  5
1E76
  8
0
  0
POLYLINE
  5
1C83
  8
0
 66
     1
 10
0.0
 20
0.0
 30
0.0
 70
    64
 71
     6
 72
     4
  0
VERTEX
  5
1C84
  8
0
 10
22.49999999999988
 20
700.0000000000001
 30
34.00000000000006
 70
   192
  0
VERTEX
  5
1C85
  8
0
 10
22.49999999999988
 20
703.0000000000001
 30
34.00000000000006
 70
   192
  0
VERTEX
  5
1C86
  8
0
 10
22.49999999999988
 20
703.0000000000001
 30
53.00000000000006
 70
   192
  0
VERTEX
  5
1C87
  8
0
 10
22.49999999999988
 20
724.0000000000001
 30
53.00000000000006
 70
   192
  0
VERTEX
  5
1C88
  8
0
 10
22.49999999999989
 20
724.0000000000001
 30
32.00000000000005
 70
   192
  0
VERTEX
  5
1C89
  8
0
 10
22.49999999999989
 20
700.0000000000001
 30
32.00000000000005
 70
   192
  0
VERTEX
  5
1C8A
  8
0
 10
0.0
 20
0.0
 30
0.0
 70
   128
 71
     2
 72
     1
 73
    -6
  0
VERTEX
  5
1C8B
  8
0
 10
0.0
 20
0.0
 30
0.0
 70
   128
 71
    -2
 72
     6
 73
    -5
  0
VERTEX
  5
1C8C
  8
0
 10
0.0
 20
0.0
 30
0.0
 70
   128
 71
     5
 72
     4
 73
    -3
  0
VERTEX
  5
1C8D
  8
0
 10
0.0
 20
0.0
 30
0.0
 70
   128
 71
    -5
 72
     3
 73
    -2
  0
SEQEND
  5
1E77
  8
0
  0
POLYLINE
  5
1C8E
  8
0
 66
     1
 10
0.0
 20
0.0
 30
0.0
 70
    64
 71
     8
 72
     6
  0
VERTEX
  5
1C8F
  8
0
 10
-22.50000000000011
 20
724.0000000000001
 30
32.00000000000005
 70
   192
  0
VERTEX
  5
1C90
  8
0
 10
-22.50000000000011
 20
700.0000000000001
 30
32.00000000000005
 70
   192
  0
VERTEX
  5
1C91
  8
0
 10
22.49999999999989
 20
700.0000000000001
 30
32.00000000000005
 70
   192
  0
VERTEX
  5
1C92
  8
0
 10
22.49999999999988
 20
724.0000000000001
 30
32.00000000000005
 70
   192
  0
VERTEX
  5
1C93
  8
0
 10
20.49999999999989
 20
724.0000000000001
 30
32.00000000000005
 70
   192
  0
VERTEX
  5
1C94
  8
0
 10
20.49999999999989
 20
702.0000000000001
 30
32.00000000000005
 70
   192
  0
VERTEX
  5
1C95
  8
0
 10
-20.50000000000011
 20
702.0000000000001
 30
32.00000000000005
 70
   192
  0
VERTEX
  5
1C96
  8
0
 10
-20.50000000000011
 20
724.0000000000001
 30
32.00000000000005
 70
   192
  0
VERTEX
  5
1C97
  8
0
 10
0.0
 20
0.0
 30
0.0
 70
   128
 71
     6
 72
     5
 73
    -4
  0
VERTEX
  5
1C98
  8
0
 10
0.0
 20
0.0
 30
0.0
 70
   128
 71
    -6
 72
     4
 73
    -3
  0
VERTEX
  5
1C99
  8
0
 10
0.0
 20
0.0
 30
0.0
 70
   128
 71
     3
 72
    -2
 73
    -7
  0
VERTEX
  5
1C9A
  8
0
 10
0.0
 20
0.0
 30
0.0
 70
   128
 71
    -3
 72
     7
 73
    -6
  0
VERTEX
  5
1C9B
  8
0
 10
0.0
 20
0.0
 30
0.0
 70
   128
 71
     2
 72
     1
 73
    -8
  0
VERTEX
  5
1C9C
  8
0
 10
0.0
 20
0.0
 30
0.0
 70
   128
 71
    -2
 72
     8
 73
    -7
  0
SEQEND
  5
1E78
  8
0
  0
POLYLINE
  5
1C9D
  8
0
 66
     1
 10
0.0
 20
0.0
 30
0.0
 70
    64
 71
     6
 72
     4
  0
VERTEX
  5
1C9E
  8
0
 10
-22.50000000000011
 20
700.0000000000001
 30
32.00000000000005
 70
   192
  0
VERTEX
  5
1C9F
  8
0
 10
-22.50000000000011
 20
724.0000000000001
 30
32.00000000000005
 70
   192
  0
VERTEX
  5
1CA0
  8
0
 10
-22.50000000000011
 20
724.0000000000001
 30
53.00000000000006
 70
   192
  0
VERTEX
  5
1CA1
  8
0
 10
-22.50000000000011
 20
703.0000000000001
 30
53.00000000000006
 70
   192
  0
VERTEX
  5
1CA2
  8
0
 10
-22.50000000000012
 20
703.0000000000001
 30
34.00000000000006
 70
   192
  0
VERTEX
  5
1CA3
  8
0
 10
-22.50000000000012
 20
700.0000000000001
 30
34.00000000000006
 70
   192
  0
VERTEX
  5
1CA4
  8
0
 10
0.0
 20
0.0
 30
0.0
 70
   128
 71
     5
 72
     4
 73
    -3
  0
VERTEX
  5
1CA5
  8
0
 10
0.0
 20
0.0
 30
0.0
 70
   128
 71
    -5
 72
     3
 73
    -2
  0
VERTEX
  5
1CA6
  8
0
 10
0.0
 20
0.0
 30
0.0
 70
   128
 71
     2
 72
    -1
 73
    -5
  0
VERTEX
  5
1CA7
  8
0
 10
0.0
 20
0.0
 30
0.0
 70
   128
 71
     1
 72
     6
 73
    -5
  0
SEQEND
  5
1E79
  8
0
  0
POLYLINE
  5
1CA8
  8
0
 66
     1
 10
0.0
 20
0.0
 30
0.0
 70
    64
 71
     4
 72
     2
  0
VERTEX
  5
1CA9
  8
0
 10
-22.50000000000012
 20
700.0000000000001
 30
34.00000000000006
 70
   192
  0
VERTEX
  5
1CAA
  8
0
 10
-22.50000000000012
 20
703.0000000000001
 30
34.00000000000006
 70
   192
  0
VERTEX
  5
1CAB
  8
0
 10
-40.0000000000001
 20
703.0000000000001
 30
34.00000000000006
 70
   192
  0
VERTEX
  5
1CAC
  8
0
 10
-40.0000000000001
 20
700.0000000000001
 30
34.00000000000006
 70
   192
  0
VERTEX
  5
1CAD
  8
0
 10
0.0
 20
0.0
 30
0.0
 70
   128
 71
     1
 72
     4
 73
    -3
  0
VERTEX
  5
1CAE
  8
0
 10
0.0
 20
0.0
 30
0.0
 70
   128
 71
    -1
 72
     3
 73
     2
  0
SEQEND
  5
1E7A
  8
0
  0
POLYLINE
  5
1CAF
  8
0
 66
     1
 10
0.0
 20
0.0
 30
0.0
 70
    64
 71
    12
 72
    12
  0
VERTEX
  5
1CB0
  8
0
 10
22.49999999999988
 20
703.0000000000001
 30
34.00000000000006
 70
   192
  0
VERTEX
  5
1CB1
  8
0
 10
22.49999999999988
 20
703.0000000000001
 30
53.00000000000006
 70
   192
  0
VERTEX
  5
1CB2
  8
0
 10
39.9999999999999
 20
703.0000000000001
 30
53.00000000000005
 70
   192
  0
VERTEX
  5
1CB3
  8
0
 10
39.9999999999999
 20
703.0000000000001
 30
34.00000000000006
 70
   192
  0
VERTEX
  5
1CB4
  8
0
 10
31.24999999999988
 20
703.0000000000001
 30
41.00000000000008
 70
   192
  0
VERTEX
  5
1CB5
  8
0
 10
33.01776695296624
 20
703.0000000000001
 30
41.73223304703371
 70
   192
  0
VERTEX
  5
1CB6
  8
0
 10
33.74999999999987
 20
703.0000000000001
 30
43.50000000000008
 70
   192
  0
VERTEX
  5
1CB7
  8
0
 10
33.01776695296624
 20
703.0000000000001
 30
45.26776695296645
 70
   192
  0
VERTEX
  5
1CB8
  8
0
 10
31.24999999999988
 20
703.0000000000001
 30
46.00000000000008
 70
   192
  0
VERTEX
  5
1CB9
  8
0
 10
29.48223304703351
 20
703.0000000000001
 30
45.26776695296645
 70
   192
  0
VERTEX
  5
1CBA
  8
0
 10
28.74999999999988
 20
703.0000000000001
 30
43.50000000000008
 70
   192
  0
VERTEX
  5
1CBB
  8
0
 10
29.48223304703351
 20
703.0000000000001
 30
41.73223304703371
 70
   192
  0
VERTEX
  5
1CBC
  8
0
 10
0.0
 20
0.0
 30
0.0
 70
   128
 71
    -1
 72
     5
 73
    -6
  0
VERTEX
  5
1CBD
  8
0
 10
0.0
 20
0.0
 30
0.0
 70
   128
 71
     4
 72
    -1
 73
    -6
  0
VERTEX
  5
1CBE
  8
0
 10
0.0
 20
0.0
 30
0.0
 70
   128
 71
    -7
 72
     3
 73
    -4
  0
VERTEX
  5
1CBF
  8
0
 10
0.0
 20
0.0
 30
0.0
 70
   128
 71
     6
 72
    -7
 73
    -4
  0
VERTEX
  5
1CC0
  8
0
 10
0.0
 20
0.0
 30
0.0
 70
   128
 71
     7
 72
    -8
 73
    -3
  0
VERTEX
  5
1CC1
  8
0
 10
0.0
 20
0.0
 30
0.0
 70
   128
 71
    -9
 72
     2
 73
    -3
  0
VERTEX
  5
1CC2
  8
0
 10
0.0
 20
0.0
 30
0.0
 70
   128
 71
     8
 72
    -9
 73
    -3
  0
VERTEX
  5
1CC3
  8
0
 10
0.0
 20
0.0
 30
0.0
 70
   128
 71
     9
 72
   -10
 73
    -2
  0
VERTEX
  5
1CC4
  8
0
 10
0.0
 20
0.0
 30
0.0
 70
   128
 71
    10
 72
   -11
 73
    -2
  0
VERTEX
  5
1CC5
  8
0
 10
0.0
 20
0.0
 30
0.0
 70
   128
 71
   -12
 72
     1
 73
    -2
  0
VERTEX
  5
1CC6
  8
0
 10
0.0
 20
0.0
 30
0.0
 70
   128
 71
    11
 72
   -12
 73
    -2
  0
VERTEX
  5
1CC7
  8
0
 10
0.0
 20
0.0
 30
0.0
 70
   128
 71
    12
 72
    -5
 73
    -1
  0
SEQEND
  5
1E7B
  8
0
  0
POLYLINE
  5
1CC8
  8
0
 66
     1
 10
0.0
 20
0.0
 30
0.0
 70
    64
 71
    24
 72
    26
  0
VERTEX
  5
1CC9
  8
0
 10
-40.0000000000001
 20
700.0000000000001
 30
53.00000000000006
 70
   192
  0
VERTEX
  5
1CCA
  8
0
 10
39.9999999999999
 20
700.0000000000001
 30
53.00000000000005
 70
   192
  0
VERTEX
  5
1CCB
  8
0
 10
39.9999999999999
 20
700.0000000000001
 30
34.00000000000006
 70
   192
  0
VERTEX
  5
1CCC
  8
0
 10
22.49999999999988
 20
700.0000000000001
 30
34.00000000000006
 70
   192
  0
VERTEX
  5
1CCD
  8
0
 10
22.49999999999989
 20
700.0000000000001
 30
32.00000000000005
 70
   192
  0
VERTEX
  5
1CCE
  8
0
 10
-22.50000000000011
 20
700.0000000000001
 30
32.00000000000005
 70
   192
  0
VERTEX
  5
1CCF
  8
0
 10
-22.50000000000012
 20
700.0000000000001
 30
34.00000000000006
 70
   192
  0
VERTEX
  5
1CD0
  8
0
 10
-40.0000000000001
 20
700.0000000000001
 30
34.00000000000006
 70
   192
  0
VERTEX
  5
1CD1
  8
0
 10
31.24999999999988
 20
700.0000000000001
 30
41.00000000000008
 70
   192
  0
VERTEX
  5
1CD2
  8
0
 10
33.01776695296624
 20
700.0000000000001
 30
41.73223304703371
 70
   192
  0
VERTEX
  5
1CD3
  8
0
 10
33.74999999999987
 20
700.0000000000001
 30
43.50000000000008
 70
   192
  0
VERTEX
  5
1CD4
  8
0
 10
33.01776695296624
 20
700.0000000000001
 30
45.26776695296645
 70
   192
  0
VERTEX
  5
1CD5
  8
0
 10
31.24999999999988
 20
700.0000000000001
 30
46.00000000000008
 70
   192
  0
VERTEX
  5
1CD6
  8
0
 10
29.48223304703351
 20
700.0000000000001
 30
45.26776695296645
 70
   192
  0
VERTEX
  5
1CD7
  8
0
 10
28.74999999999988
 20
700.0000000000001
 30
43.50000000000008
 70
   192
  0
VERTEX
  5
1CD8
  8
0
 10
29.48223304703351
 20
700.0000000000001
 30
41.73223304703371
 70
   192
  0
VERTEX
  5
1CD9
  8
0
 10
-31.2500000000001
 20
700.0000000000001
 30
41.00000000000006
 70
   192
  0
VERTEX
  5
1CDA
  8
0
 10
-29.48223304703373
 20
700.0000000000001
 30
41.73223304703369
 70
   192
  0
VERTEX
  5
1CDB
  8
0
 10
-28.75000000000011
 20
700.0000000000001
 30
43.50000000000006
 70
   192
  0
VERTEX
  5
1CDC
  8
0
 10
-29.48223304703373
 20
700.0000000000001
 30
45.26776695296643
 70
   192
  0
VERTEX
  5
1CDD
  8
0
 10
-31.2500000000001
 20
700.0000000000001
 30
46.00000000000006
 70
   192
  0
VERTEX
  5
1CDE
  8
0
 10
-33.01776695296647
 20
700.0000000000001
 30
45.26776695296643
 70
   192
  0
VERTEX
  5
1CDF
  8
0
 10
-33.7500000000001
 20
700.0000000000001
 30
43.50000000000006
 70
   192
  0
VERTEX
  5
1CE0
  8
0
 10
-33.01776695296647
 20
700.0000000000001
 30
41.73223304703369
 70
   192
  0
VERTEX
  5
1CE1
  8
0
 10
0.0
 20
0.0
 30
0.0
 70
   128
 71
     7
 72
     6
 73
    -5
  0
VERTEX
  5
1CE2
  8
0
 10
0.0
 20
0.0
 30
0.0
 70
   128
 71
    10
 72
    -9
 73
    -4
  0
VERTEX
  5
1CE3
  8
0
 10
0.0
 20
0.0
 30
0.0
 70
   128
 71
   -10
 72
     4
 73
    -3
  0
VERTEX
  5
1CE4
  8
0
 10
0.0
 20
0.0
 30
0.0
 70
   128
 71
     3
 72
    -2
 73
   -11
  0
VERTEX
  5
1CE5
  8
0
 10
0.0
 20
0.0
 30
0.0
 70
   128
 71
    -3
 72
    11
 73
   -10
  0
VERTEX
  5
1CE6
  8
0
 10
0.0
 20
0.0
 30
0.0
 70
   128
 71
    -2
 72
    12
 73
   -11
  0
VERTEX
  5
1CE7
  8
0
 10
0.0
 20
0.0
 30
0.0
 70
   128
 71
    -2
 72
    13
 73
   -12
  0
VERTEX
  5
1CE8
  8
0
 10
0.0
 20
0.0
 30
0.0
 70
   128
 71
    -2
 72
    14
 73
   -13
  0
VERTEX
  5
1CE9
  8
0
 10
0.0
 20
0.0
 30
0.0
 70
   128
 71
    20
 72
   -19
 73
   -15
  0
VERTEX
  5
1CEA
  8
0
 10
0.0
 20
0.0
 30
0.0
 70
   128
 71
   -14
 72
     2
 73
    -1
  0
VERTEX
  5
1CEB
  8
0
 10
0.0
 20
0.0
 30
0.0
 70
   128
 71
   -14
 72
    -1
 73
   -20
  0
VERTEX
  5
1CEC
  8
0
 10
0.0
 20
0.0
 30
0.0
 70
   128
 71
   -20
 72
    15
 73
   -14
  0
VERTEX
  5
1CED
  8
0
 10
0.0
 20
0.0
 30
0.0
 70
   128
 71
    -1
 72
    21
 73
   -20
  0
VERTEX
  5
1CEE
  8
0
 10
0.0
 20
0.0
 30
0.0
 70
   128
 71
    -1
 72
    22
 73
   -21
  0
VERTEX
  5
1CEF
  8
0
 10
0.0
 20
0.0
 30
0.0
 70
   128
 71
     1
 72
    -8
 73
   -23
  0
VERTEX
  5
1CF0
  8
0
 10
0.0
 20
0.0
 30
0.0
 70
   128
 71
    -1
 72
    23
 73
   -22
  0
VERTEX
  5
1CF1
  8
0
 10
0.0
 20
0.0
 30
0.0
 70
   128
 71
    -8
 72
    24
 73
   -23
  0
VERTEX
  5
1CF2
  8
0
 10
0.0
 20
0.0
 30
0.0
 70
   128
 71
     8
 72
    -7
 73
   -17
  0
VERTEX
  5
1CF3
  8
0
 10
0.0
 20
0.0
 30
0.0
 70
   128
 71
    -8
 72
    17
 73
   -24
  0
VERTEX
  5
1CF4
  8
0
 10
0.0
 20
0.0
 30
0.0
 70
   128
 71
    18
 72
   -17
 73
    -7
  0
VERTEX
  5
1CF5
  8
0
 10
0.0
 20
0.0
 30
0.0
 70
   128
 71
    -7
 72
    -4
 73
   -16
  0
VERTEX
  5
1CF6
  8
0
 10
0.0
 20
0.0
 30
0.0
 70
   128
 71
    -7
 72
    16
 73
   -15
  0
VERTEX
  5
1CF7
  8
0
 10
0.0
 20
0.0
 30
0.0
 70
   128
 71
    -7
 72
   -15
 73
   -19
  0
VERTEX
  5
1CF8
  8
0
 10
0.0
 20
0.0
 30
0.0
 70
   128
 71
    -7
 72
    19
 73
   -18
  0
VERTEX
  5
1CF9
  8
0
 10
0.0
 20
0.0
 30
0.0
 70
   128
 71
    -4
 72
     9
 73
   -16
  0
VERTEX
  5
1CFA
  8
0
 10
0.0
 20
0.0
 30
0.0
 70
   128
 71
    -7
 72
     5
 73
    -4
  0
SEQEND
  5
1E7C
  8
0
  0
POLYLINE
  5
1CFB
  8
0
 66
     1
 10
0.0
 20
0.0
 30
0.0
 70
    64
 71
     8
 72
     6
  0
VERTEX
  5
1CFC
  8
0
 10
-20.50000000000017
 20
724.0000000000001
 30
51.00000000000006
 70
   192
  0
VERTEX
  5
1CFD
  8
0
 10
-20.50000000000011
 20
724.0000000000001
 30
32.00000000000005
 70
   192
  0
VERTEX
  5
1CFE
  8
0
 10
-22.50000000000011
 20
724.0000000000001
 30
32.00000000000005
 70
   192
  0
VERTEX
  5
1CFF
  8
0
 10
-22.50000000000011
 20
724.0000000000001
 30
53.00000000000006
 70
   192
  0
VERTEX
  5
1D00
  8
0
 10
22.49999999999988
 20
724.0000000000001
 30
53.00000000000006
 70
   192
  0
VERTEX
  5
1D01
  8
0
 10
22.49999999999988
 20
724.0000000000001
 30
32.00000000000005
 70
   192
  0
VERTEX
  5
1D02
  8
0
 10
20.49999999999989
 20
724.0000000000001
 30
32.00000000000005
 70
   192
  0
VERTEX
  5
1D03
  8
0
 10
20.49999999999982
 20
724.0000000000001
 30
51.00000000000006
 70
   192
  0
VERTEX
  5
1D04
  8
0
 10
0.0
 20
0.0
 30
0.0
 70
   128
 71
     6
 72
     7
 73
    -8
  0
VERTEX
  5
1D05
  8
0
 10
0.0
 20
0.0
 30
0.0
 70
   128
 71
     5
 72
    -6
 73
    -8
  0
VERTEX
  5
1D06
  8
0
 10
0.0
 20
0.0
 30
0.0
 70
   128
 71
    -1
 72
     4
 73
    -5
  0
VERTEX
  5
1D07
  8
0
 10
0.0
 20
0.0
 30
0.0
 70
   128
 71
     8
 72
    -1
 73
    -5
  0
VERTEX
  5
1D08
  8
0
 10
0.0
 20
0.0
 30
0.0
 70
   128
 71
     2
 72
     3
 73
    -4
  0
VERTEX
  5
1D09
  8
0
 10
0.0
 20
0.0
 30
0.0
 70
   128
 71
     1
 72
    -2
 73
    -4
  0
SEQEND
  5
1E7D
  8
0
  0
POLYLINE
  5
1D0A
  8
0
 66
     1
 10
0.0
 20
0.0
 30
0.0
 70
    64
 71
     4
 72
     2
  0
VERTEX
  5
1D0B
  8
0
 10
-20.50000000000017
 20
702.0000000000001
 30
51.00000000000006
 70
   192
  0
VERTEX
  5
1D0C
  8
0
 10
-20.50000000000017
 20
724.0000000000001
 30
51.00000000000006
 70
   192
  0
VERTEX
  5
1D0D
  8
0
 10
20.49999999999983
 20
724.0000000000001
 30
51.00000000000005
 70
   192
  0
VERTEX
  5
1D0E
  8
0
 10
20.49999999999982
 20
702.0000000000001
 30
51.00000000000006
 70
   192
  0
VERTEX
  5
1D0F
  8
0
 10
0.0
 20
0.0
 30
0.0
 70
   128
 71
     3
 72
     4
 73
    -1
  0
VERTEX
  5
1D10
  8
0
 10
0.0
 20
0.0
 30
0.0
 70
   128
 71
     2
 72
    -3
 73
     1
  0
SEQEND
  5
1E7E
  8
0
  0
POLYLINE
  5
1D11
  8
0
 66
     1
 10
0.0
 20
0.0
 30
0.0
 70
    64
 71
     4
 72
     2
  0
VERTEX
  5
1D12
  8
0
 10
20.49999999999982
 20
702.0000000000001
 30
51.00000000000006
 70
   192
  0
VERTEX
  5
1D13
  8
0
 10
20.49999999999982
 20
724.0000000000001
 30
51.00000000000006
 70
   192
  0
VERTEX
  5
1D14
  8
0
 10
20.49999999999989
 20
724.0000000000001
 30
32.00000000000005
 70
   192
  0
VERTEX
  5
1D15
  8
0
 10
20.49999999999989
 20
702.0000000000001
 30
32.00000000000005
 70
   192
  0
VERTEX
  5
1D16
  8
0
 10
0.0
 20
0.0
 30
0.0
 70
   128
 71
     3
 72
     4
 73
    -1
  0
VERTEX
  5
1D17
  8
0
 10
0.0
 20
0.0
 30
0.0
 70
   128
 71
     2
 72
    -3
 73
     1
  0
SEQEND
  5
1E7F
  8
0
  0
POLYLINE
  5
1D18
  8
0
 66
     1
 10
0.0
 20
0.0
 30
0.0
 70
    64
 71
     4
 72
     2
  0
VERTEX
  5
1D19
  8
0
 10
-20.50000000000017
 20
702.0000000000001
 30
51.00000000000006
 70
   192
  0
VERTEX
  5
1D1A
  8
0
 10
-20.50000000000011
 20
702.0000000000001
 30
32.00000000000005
 70
   192
  0
VERTEX
  5
1D1B
  8
0
 10
-20.50000000000011
 20
724.0000000000001
 30
32.00000000000005
 70
   192
  0
VERTEX
  5
1D1C
  8
0
 10
-20.50000000000017
 20
724.0000000000001
 30
51.00000000000006
 70
   192
  0
VERTEX
  5
1D1D
  8
0
 10
0.0
 20
0.0
 30
0.0
 70
   128
 71
     3
 72
     4
 73
    -1
  0
VERTEX
  5
1D1E
  8
0
 10
0.0
 20
0.0
 30
0.0
 70
   128
 71
     2
 72
    -3
 73
     1
  0
SEQEND
  5
1E80
  8
0
  0
POLYLINE
  5
1D1F
  8
0
 66
     1
 10
0.0
 20
0.0
 30
0.0
 70
    64
 71
     4
 72
     2
  0
VERTEX
  5
1D20
  8
0
 10
-20.50000000000017
 20
702.0000000000001
 30
51.00000000000006
 70
   192
  0
VERTEX
  5
1D21
  8
0
 10
20.49999999999983
 20
702.0000000000001
 30
51.00000000000005
 70
   192
  0
VERTEX
  5
1D22
  8
0
 10
20.49999999999989
 20
702.0000000000001
 30
32.00000000000005
 70
   192
  0
VERTEX
  5
1D23
  8
0
 10
-20.50000000000011
 20
702.0000000000001
 30
32.00000000000005
 70
   192
  0
VERTEX
  5
1D24
  8
0
 10
0.0
 20
0.0
 30
0.0
 70
   128
 71
     3
 72
     4
 73
    -1
  0
VERTEX
  5
1D25
  8
0
 10
0.0
 20
0.0
 30
0.0
 70
   128
 71
     2
 72
    -3
 73
     1
  0
SEQEND
  5
1E81
  8
0
  0
POLYLINE
  5
1D26
  8
0
 66
     1
 10
0.0
 20
0.0
 30
0.0
 70
    64
 71
    10
 72
     8
  0
VERTEX
  5
1D27
  8
0
 10
31.24999999999988
 20
700.0000000000001
 30
46.00000000000008
 70
   192
  0
VERTEX
  5
1D28
  8
0
 10
31.24999999999988
 20
700.0000000000001
 30
41.00000000000009
 70
   192
  0
VERTEX
  5
1D29
  8
0
 10
31.24999999999988
 20
703.0000000000001
 30
41.00000000000009
 70
   192
  0
VERTEX
  5
1D2A
  8
0
 10
31.24999999999988
 20
703.0000000000001
 30
46.00000000000008
 70
   192
  0
VERTEX
  5
1D2B
  8
0
 10
33.74999999999987
 20
703.0000000000001
 30
43.50000000000008
 70
   192
  0
VERTEX
  5
1D2C
  8
0
 10
33.74999999999987
 20
700.0000000000001
 30
43.50000000000008
 70
   192
  0
VERTEX
  5
1D2D
  8
0
 10
33.01776695296624
 20
703.0000000000001
 30
45.26776695296645
 70
   192
  0
VERTEX
  5
1D2E
  8
0
 10
33.01776695296624
 20
700.0000000000001
 30
45.26776695296645
 70
   192
  0
VERTEX
  5
1D2F
  8
0
 10
33.01776695296624
 20
703.0000000000001
 30
41.73223304703371
 70
   192
  0
VERTEX
  5
1D30
  8
0
 10
33.01776695296624
 20
700.0000000000001
 30
41.73223304703371
 70
   192
  0
VERTEX
  5
1D31
  8
0
 10
0.0
 20
0.0
 30
0.0
 70
   128
 71
     8
 72
     1
 73
    -4
  0
VERTEX
  5
1D32
  8
0
 10
0.0
 20
0.0
 30
0.0
 70
   128
 71
     7
 72
    -8
 73
     4
  0
VERTEX
  5
1D33
  8
0
 10
0.0
 20
0.0
 30
0.0
 70
   128
 71
     6
 72
     8
 73
    -7
  0
VERTEX
  5
1D34
  8
0
 10
0.0
 20
0.0
 30
0.0
 70
   128
 71
     5
 72
    -6
 73
     7
  0
VERTEX
  5
1D35
  8
0
 10
0.0
 20
0.0
 30
0.0
 70
   128
 71
    10
 72
     6
 73
    -5
  0
VERTEX
  5
1D36
  8
0
 10
0.0
 20
0.0
 30
0.0
 70
   128
 71
     9
 72
   -10
 73
     5
  0
VERTEX
  5
1D37
  8
0
 10
0.0
 20
0.0
 30
0.0
 70
   128
 71
     3
 72
     2
 73
   -10
  0
VERTEX
  5
1D38
  8
0
 10
0.0
 20
0.0
 30
0.0
 70
   128
 71
     9
 72
    -3
 73
    10
  0
SEQEND
  5
1E82
  8
0
  0
POLYLINE
  5
1D39
  8
0
 66
     1
 10
0.0
 20
0.0
 30
0.0
 70
    64
 71
    10
 72
     8
  0
VERTEX
  5
1D3A
  8
0
 10
-31.2500000000001
 20
700.0000000000001
 30
46.00000000000006
 70
   192
  0
VERTEX
  5
1D3B
  8
0
 10
-31.2500000000001
 20
700.0000000000001
 30
41.00000000000006
 70
   192
  0
VERTEX
  5
1D3C
  8
0
 10
-31.2500000000001
 20
703.0000000000001
 30
41.00000000000006
 70
   192
  0
VERTEX
  5
1D3D
  8
0
 10
-31.2500000000001
 20
703.0000000000001
 30
46.00000000000006
 70
   192
  0
VERTEX
  5
1D3E
  8
0
 10
-28.7500000000001
 20
703.0000000000001
 30
43.50000000000006
 70
   192
  0
VERTEX
  5
1D3F
  8
0
 10
-28.75000000000011
 20
700.0000000000001
 30
43.50000000000006
 70
   192
  0
VERTEX
  5
1D40
  8
0
 10
-29.48223304703373
 20
703.0000000000001
 30
45.26776695296643
 70
   192
  0
VERTEX
  5
1D41
  8
0
 10
-29.48223304703373
 20
700.0000000000001
 30
45.26776695296643
 70
   192
  0
VERTEX
  5
1D42
  8
0
 10
-29.48223304703373
 20
703.0000000000001
 30
41.73223304703369
 70
   192
  0
VERTEX
  5
1D43
  8
0
 10
-29.48223304703373
 20
700.0000000000001
 30
41.73223304703369
 70
   192
  0
VERTEX
  5
1D44
  8
0
 10
0.0
 20
0.0
 30
0.0
 70
   128
 71
     8
 72
     1
 73
    -4
  0
VERTEX
  5
1D45
  8
0
 10
0.0
 20
0.0
 30
0.0
 70
   128
 71
     7
 72
    -8
 73
     4
  0
VERTEX
  5
1D46
  8
0
 10
0.0
 20
0.0
 30
0.0
 70
   128
 71
     6
 72
     8
 73
    -7
  0
VERTEX
  5
1D47
  8
0
 10
0.0
 20
0.0
 30
0.0
 70
   128
 71
     5
 72
    -6
 73
     7
  0
VERTEX
  5
1D48
  8
0
 10
0.0
 20
0.0
 30
0.0
 70
   128
 71
    10
 72
     6
 73
    -5
  0
VERTEX
  5
1D49
  8
0
 10
0.0
 20
0.0
 30
0.0
 70
   128
 71
     9
 72
   -10
 73
     5
  0
VERTEX
  5
1D4A
  8
0
 10
0.0
 20
0.0
 30
0.0
 70
   128
 71
     3
 72
     2
 73
   -10
  0
VERTEX
  5
1D4B
  8
0
 10
0.0
 20
0.0
 30
0.0
 70
   128
 71
     9
 72
    -3
 73
    10
  0
SEQEND
  5
1E83
  8
0
  0
ENDBLK
  5
1E6F
  8
0
  0
BLOCK
  8
0
  2
*X19
 70
     1
 10
0.0
 20
0.0
 30
0.0
  3
*X19
  1

  0
POLYLINE
  5
1D4D
  8
0
 66
     1
 10
0.0
 20
0.0
 30
0.0
 70
    64
 71
     4
 72
     2
  0
VERTEX
  5
1D4E
  8
0
 10
20.00000000000006
 20
726.0000000000001
 30
32.00000000000004
 70
   192
  0
VERTEX
  5
1D4F
  8
0
 10
20.00000000000007
 20
731.0000000000001
 30
32.00000000000004
 70
   192
  0
VERTEX
  5
1D50
  8
0
 10
-19.99999999999993
 20
731.0000000000001
 30
32.00000000000004
 70
   192
  0
VERTEX
  5
1D51
  8
0
 10
-19.99999999999992
 20
726.0000000000001
 30
32.00000000000004
 70
   192
  0
VERTEX
  5
1D52
  8
0
 10
0.0
 20
0.0
 30
0.0
 70
   128
 71
     1
 72
     4
 73
    -3
  0
VERTEX
  5
1D53
  8
0
 10
0.0
 20
0.0
 30
0.0
 70
   128
 71
    -1
 72
     3
 73
     2
  0
SEQEND
  5
1E86
  8
0
  0
POLYLINE
  5
1D54
  8
0
 66
     1
 10
0.0
 20
0.0
 30
0.0
 70
    64
 71
     8
 72
     6
  0
VERTEX
  5
1D55
  8
0
 10
20.00000000000006
 20
724.0000000000001
 30
112.0000000000001
 70
   192
  0
VERTEX
  5
1D56
  8
0
 10
140.0
 20
724.0000000000001
 30
112.0000000000001
 70
   192
  0
VERTEX
  5
1D57
  8
0
 10
140.0
 20
738.0000000000001
 30
112.0000000000001
 70
   192
  0
VERTEX
  5
1D58
  8
0
 10
-140.0000000000001
 20
738.0000000000001
 30
112.0000000000001
 70
   192
  0
VERTEX
  5
1D59
  8
0
 10
-140.0
 20
724.0000000000001
 30
112.0000000000001
 70
   192
  0
VERTEX
  5
1D5A
  8
0
 10
-19.99999999999992
 20
724.0000000000001
 30
112.0000000000001
 70
   192
  0
VERTEX
  5
1D5B
  8
0
 10
-19.99999999999993
 20
731.0000000000001
 30
112.0000000000001
 70
   192
  0
VERTEX
  5
1D5C
  8
0
 10
20.00000000000007
 20
731.0000000000001
 30
112.0000000000001
 70
   192
  0
VERTEX
  5
1D5D
  8
0
 10
0.0
 20
0.0
 30
0.0
 70
   128
 71
     7
 72
     6
 73
    -5
  0
VERTEX
  5
1D5E
  8
0
 10
0.0
 20
0.0
 30
0.0
 70
   128
 71
    -7
 72
     5
 73
    -4
  0
VERTEX
  5
1D5F
  8
0
 10
0.0
 20
0.0
 30
0.0
 70
   128
 71
    -4
 72
     8
 73
    -7
  0
VERTEX
  5
1D60
  8
0
 10
0.0
 20
0.0
 30
0.0
 70
   128
 71
     4
 72
    -3
 73
    -8
  0
VERTEX
  5
1D61
  8
0
 10
0.0
 20
0.0
 30
0.0
 70
   128
 71
     3
 72
     2
 73
    -1
  0
VERTEX
  5
1D62
  8
0
 10
0.0
 20
0.0
 30
0.0
 70
   128
 71
    -3
 72
     1
 73
    -8
  0
SEQEND
  5
1E87
  8
0
  0
POLYLINE
  5
1D63
  8
0
 66
     1
 10
0.0
 20
0.0
 30
0.0
 70
    64
 71
     4
 72
     2
  0
VERTEX
  5
1D64
  8
0
 10
-140.0000000000001
 20
724.0000000000001
 30
137.0000000000001
 70
   192
  0
VERTEX
  5
1D65
  8
0
 10
-140.0000000000001
 20
738.0000000000001
 30
137.0000000000001
 70
   192
  0
VERTEX
  5
1D66
  8
0
 10
-140.0000000000001
 20
738.0000000000001
 30
112.0000000000001
 70
   192
  0
VERTEX
  5
1D67
  8
0
 10
-140.0000000000001
 20
724.0000000000001
 30
112.0000000000001
 70
   192
  0
VERTEX
  5
1D68
  8
0
 10
0.0
 20
0.0
 30
0.0
 70
   128
 71
     3
 72
     4
 73
    -1
  0
VERTEX
  5
1D69
  8
0
 10
0.0
 20
0.0
 30
0.0
 70
   128
 71
     2
 72
    -3
 73
     1
  0
SEQEND
  5
1E88
  8
0
  0
POLYLINE
  5
1D6A
  8
0
 66
     1
 10
0.0
 20
0.0
 30
0.0
 70
    64
 71
     4
 72
     2
  0
VERTEX
  5
1D6B
  8
0
 10
-140.0
 20
738.0000000000001
 30
137.0000000000001
 70
   192
  0
VERTEX
  5
1D6C
  8
0
 10
140.0
 20
738.0000000000001
 30
137.0000000000001
 70
   192
  0
VERTEX
  5
1D6D
  8
0
 10
140.0
 20
738.0000000000001
 30
112.0000000000001
 70
   192
  0
VERTEX
  5
1D6E
  8
0
 10
-140.0
 20
738.0000000000001
 30
112.0000000000001
 70
   192
  0
VERTEX
  5
1D6F
  8
0
 10
0.0
 20
0.0
 30
0.0
 70
   128
 71
     3
 72
     4
 73
    -1
  0
VERTEX
  5
1D70
  8
0
 10
0.0
 20
0.0
 30
0.0
 70
   128
 71
     2
 72
    -3
 73
     1
  0
SEQEND
  5
1E89
  8
0
  0
POLYLINE
  5
1D71
  8
0
 66
     1
 10
0.0
 20
0.0
 30
0.0
 70
    64
 71
     4
 72
     2
  0
VERTEX
  5
1D72
  8
0
 10
140.0
 20
738.0000000000001
 30
137.0000000000001
 70
   192
  0
VERTEX
  5
1D73
  8
0
 10
140.0
 20
724.0000000000001
 30
137.0000000000001
 70
   192
  0
VERTEX
  5
1D74
  8
0
 10
140.0
 20
724.0000000000001
 30
112.0000000000001
 70
   192
  0
VERTEX
  5
1D75
  8
0
 10
140.0
 20
738.0000000000001
 30
112.0000000000001
 70
   192
  0
VERTEX
  5
1D76
  8
0
 10
0.0
 20
0.0
 30
0.0
 70
   128
 71
     3
 72
     4
 73
    -1
  0
VERTEX
  5
1D77
  8
0
 10
0.0
 20
0.0
 30
0.0
 70
   128
 71
     2
 72
    -3
 73
     1
  0
SEQEND
  5
1E8A
  8
0
  0
POLYLINE
  5
1D78
  8
0
 66
     1
 10
0.0
 20
0.0
 30
0.0
 70
    64
 71
     8
 72
     6
  0
VERTEX
  5
1D79
  8
0
 10
140.0
 20
724.0000000000001
 30
137.0000000000001
 70
   192
  0
VERTEX
  5
1D7A
  8
0
 10
-140.0
 20
724.0000000000001
 30
137.0000000000001
 70
   192
  0
VERTEX
  5
1D7B
  8
0
 10
-140.0000000000001
 20
724.0000000000001
 30
112.0000000000001
 70
   192
  0
VERTEX
  5
1D7C
  8
0
 10
-19.99999999999991
 20
724.0000000000001
 30
112.0000000000001
 70
   192
  0
VERTEX
  5
1D7D
  8
0
 10
-19.99999999999992
 20
724.0000000000001
 30
32.00000000000004
 70
   192
  0
VERTEX
  5
1D7E
  8
0
 10
20.00000000000006
 20
724.0000000000001
 30
32.00000000000004
 70
   192
  0
VERTEX
  5
1D7F
  8
0
 10
20.00000000000006
 20
724.0000000000001
 30
112.0000000000001
 70
   192
  0
VERTEX
  5
1D80
  8
0
 10
140.0
 20
724.0000000000001
 30
112.0000000000001
 70
   192
  0
VERTEX
  5
1D81
  8
0
 10
0.0
 20
0.0
 30
0.0
 70
   128
 71
     2
 72
     3
 73
    -4
  0
VERTEX
  5
1D82
  8
0
 10
0.0
 20
0.0
 30
0.0
 70
   128
 71
    -4
 72
    -7
 73
    -2
  0
VERTEX
  5
1D83
  8
0
 10
0.0
 20
0.0
 30
0.0
 70
   128
 71
     5
 72
     6
 73
    -7
  0
VERTEX
  5
1D84
  8
0
 10
0.0
 20
0.0
 30
0.0
 70
   128
 71
     4
 72
    -5
 73
    -7
  0
VERTEX
  5
1D85
  8
0
 10
0.0
 20
0.0
 30
0.0
 70
   128
 71
    -7
 72
     1
 73
    -2
  0
VERTEX
  5
1D86
  8
0
 10
0.0
 20
0.0
 30
0.0
 70
   128
 71
     7
 72
     8
 73
    -1
  0
SEQEND
  5
1E8B
  8
0
  0
POLYLINE
  5
1D87
  8
0
 66
     1
 10
0.0
 20
0.0
 30
0.0
 70
    64
 71
     4
 72
     2
  0
VERTEX
  5
1D88
  8
0
 10
-140.0000000000001
 20
738.0000000000001
 30
137.0000000000001
 70
   192
  0
VERTEX
  5
1D89
  8
0
 10
-140.0000000000001
 20
724.0000000000001
 30
137.0000000000001
 70
   192
  0
VERTEX
  5
1D8A
  8
0
 10
140.0
 20
724.0000000000001
 30
137.0000000000001
 70
   192
  0
VERTEX
  5
1D8B
  8
0
 10
140.0
 20
738.0000000000001
 30
137.0000000000001
 70
   192
  0
VERTEX
  5
1D8C
  8
0
 10
0.0
 20
0.0
 30
0.0
 70
   128
 71
     3
 72
     4
 73
    -1
  0
VERTEX
  5
1D8D
  8
0
 10
0.0
 20
0.0
 30
0.0
 70
   128
 71
     2
 72
    -3
 73
     1
  0
SEQEND
  5
1E8C
  8
0
  0
POLYLINE
  5
1D8E
  8
0
 66
     1
 10
0.0
 20
0.0
 30
0.0
 70
    64
 71
     8
 72
     6
  0
VERTEX
  5
1D8F
  8
0
 10
20.00000000000007
 20
731.0000000000001
 30
112.0000000000001
 70
   192
  0
VERTEX
  5
1D90
  8
0
 10
20.00000000000007
 20
731.0000000000001
 30
32.00000000000004
 70
   192
  0
VERTEX
  5
1D91
  8
0
 10
20.00000000000007
 20
726.0000000000001
 30
32.00000000000004
 70
   192
  0
VERTEX
  5
1D92
  8
0
 10
20.00000000000007
 20
726.0000000000001
 30
30.00000000000004
 70
   192
  0
VERTEX
  5
1D93
  8
0
 10
20.00000000000007
 20
709.0000000000001
 30
30.00000000000004
 70
   192
  0
VERTEX
  5
1D94
  8
0
 10
20.00000000000007
 20
709.0000000000001
 30
32.00000000000004
 70
   192
  0
VERTEX
  5
1D95
  8
0
 10
20.00000000000006
 20
724.0000000000001
 30
32.00000000000004
 70
   192
  0
VERTEX
  5
1D96
  8
0
 10
20.00000000000006
 20
724.0000000000001
 30
112.0000000000001
 70
   192
  0
VERTEX
  5
1D97
  8
0
 10
0.0
 20
0.0
 30
0.0
 70
   128
 71
     7
 72
     6
 73
    -5
  0
VERTEX
  5
1D98
  8
0
 10
0.0
 20
0.0
 30
0.0
 70
   128
 71
    -7
 72
     5
 73
    -4
  0
VERTEX
  5
1D99
  8
0
 10
0.0
 20
0.0
 30
0.0
 70
   128
 71
     3
 72
     2
 73
    -1
  0
VERTEX
  5
1D9A
  8
0
 10
0.0
 20
0.0
 30
0.0
 70
   128
 71
    -3
 72
     1
 73
    -8
  0
VERTEX
  5
1D9B
  8
0
 10
0.0
 20
0.0
 30
0.0
 70
   128
 71
     8
 72
    -7
 73
    -3
  0
VERTEX
  5
1D9C
  8
0
 10
0.0
 20
0.0
 30
0.0
 70
   128
 71
    -7
 72
     4
 73
    -3
  0
SEQEND
  5
1E8D
  8
0
  0
POLYLINE
  5
1D9D
  8
0
 66
     1
 10
0.0
 20
0.0
 30
0.0
 70
    64
 71
     8
 72
     6
  0
VERTEX
  5
1D9E
  8
0
 10
-19.99999999999992
 20
724.0000000000001
 30
112.0000000000001
 70
   192
  0
VERTEX
  5
1D9F
  8
0
 10
-19.99999999999992
 20
724.0000000000001
 30
32.00000000000004
 70
   192
  0
VERTEX
  5
1DA0
  8
0
 10
-19.9999999999999
 20
709.0000000000001
 30
32.00000000000004
 70
   192
  0
VERTEX
  5
1DA1
  8
0
 10
-19.9999999999999
 20
709.0000000000001
 30
30.00000000000004
 70
   192
  0
VERTEX
  5
1DA2
  8
0
 10
-19.99999999999992
 20
726.0000000000001
 30
30.00000000000004
 70
   192
  0
VERTEX
  5
1DA3
  8
0
 10
-19.99999999999992
 20
726.0000000000001
 30
32.00000000000004
 70
   192
  0
VERTEX
  5
1DA4
  8
0
 10
-19.99999999999993
 20
731.0000000000001
 30
32.00000000000004
 70
   192
  0
VERTEX
  5
1DA5
  8
0
 10
-19.99999999999993
 20
731.0000000000001
 30
112.0000000000001
 70
   192
  0
VERTEX
  5
1DA6
  8
0
 10
0.0
 20
0.0
 30
0.0
 70
   128
 71
    -2
 72
     6
 73
    -5
  0
VERTEX
  5
1DA7
  8
0
 10
0.0
 20
0.0
 30
0.0
 70
   128
 71
     5
 72
     4
 73
    -3
  0
VERTEX
  5
1DA8
  8
0
 10
0.0
 20
0.0
 30
0.0
 70
   128
 71
    -5
 72
     3
 73
    -2
  0
VERTEX
  5
1DA9
  8
0
 10
0.0
 20
0.0
 30
0.0
 70
   128
 71
    -6
 72
     2
 73
    -1
  0
VERTEX
  5
1DAA
  8
0
 10
0.0
 20
0.0
 30
0.0
 70
   128
 71
     1
 72
     8
 73
    -7
  0
VERTEX
  5
1DAB
  8
0
 10
0.0
 20
0.0
 30
0.0
 70
   128
 71
    -1
 72
     7
 73
    -6
  0
SEQEND
  5
1E8E
  8
0
  0
POLYLINE
  5
1DAC
  8
0
 66
     1
 10
0.0
 20
0.0
 30
0.0
 70
    64
 71
     4
 72
     2
  0
VERTEX
  5
1DAD
  8
0
 10
-19.99999999999993
 20
731.0000000000001
 30
112.0000000000001
 70
   192
  0
VERTEX
  5
1DAE
  8
0
 10
-19.99999999999993
 20
731.0000000000001
 30
32.00000000000004
 70
   192
  0
VERTEX
  5
1DAF
  8
0
 10
20.00000000000007
 20
731.0000000000001
 30
32.00000000000004
 70
   192
  0
VERTEX
  5
1DB0
  8
0
 10
20.00000000000007
 20
731.0000000000001
 30
112.0000000000001
 70
   192
  0
VERTEX
  5
1DB1
  8
0
 10
0.0
 20
0.0
 30
0.0
 70
   128
 71
     1
 72
     4
 73
    -3
  0
VERTEX
  5
1DB2
  8
0
 10
0.0
 20
0.0
 30
0.0
 70
   128
 71
    -1
 72
     3
 73
     2
  0
SEQEND
  5
1E8F
  8
0
  0
POLYLINE
  5
1DB3
  8
0
 66
     1
 10
0.0
 20
0.0
 30
0.0
 70
    64
 71
     4
 72
     2
  0
VERTEX
  5
1DB4
  8
0
 10
20.00000000000007
 20
709.0000000000001
 30
32.00000000000004
 70
   192
  0
VERTEX
  5
1DB5
  8
0
 10
20.00000000000007
 20
724.0000000000001
 30
32.00000000000004
 70
   192
  0
VERTEX
  5
1DB6
  8
0
 10
-19.99999999999992
 20
724.0000000000001
 30
32.00000000000004
 70
   192
  0
VERTEX
  5
1DB7
  8
0
 10
-19.9999999999999
 20
709.0000000000001
 30
32.00000000000004
 70
   192
  0
VERTEX
  5
1DB8
  8
0
 10
0.0
 20
0.0
 30
0.0
 70
   128
 71
     3
 72
     4
 73
    -1
  0
VERTEX
  5
1DB9
  8
0
 10
0.0
 20
0.0
 30
0.0
 70
   128
 71
     2
 72
    -3
 73
     1
  0
SEQEND
  5
1E90
  8
0
  0
POLYLINE
  5
1DBA
  8
0
 66
     1
 10
0.0
 20
0.0
 30
0.0
 70
    64
 71
     4
 72
     2
  0
VERTEX
  5
1DBB
  8
0
 10
-19.99999999999992
 20
726.0000000000001
 30
30.00000000000004
 70
   192
  0
VERTEX
  5
1DBC
  8
0
 10
-19.99999999999992
 20
726.0000000000001
 30
32.00000000000004
 70
   192
  0
VERTEX
  5
1DBD
  8
0
 10
20.00000000000007
 20
726.0000000000001
 30
32.00000000000004
 70
   192
  0
VERTEX
  5
1DBE
  8
0
 10
20.00000000000007
 20
726.0000000000001
 30
30.00000000000004
 70
   192
  0
VERTEX
  5
1DBF
  8
0
 10
0.0
 20
0.0
 30
0.0
 70
   128
 71
     3
 72
     4
 73
    -1
  0
VERTEX
  5
1DC0
  8
0
 10
0.0
 20
0.0
 30
0.0
 70
   128
 71
     2
 72
    -3
 73
     1
  0
SEQEND
  5
1E91
  8
0
  0
POLYLINE
  5
1DC1
  8
0
 66
     1
 10
0.0
 20
0.0
 30
0.0
 70
    64
 71
     4
 72
     2
  0
VERTEX
  5
1DC2
  8
0
 10
-19.9999999999999
 20
709.0000000000001
 30
30.00000000000004
 70
   192
  0
VERTEX
  5
1DC3
  8
0
 10
-19.99999999999992
 20
726.0000000000001
 30
30.00000000000004
 70
   192
  0
VERTEX
  5
1DC4
  8
0
 10
20.00000000000007
 20
726.0000000000001
 30
30.00000000000004
 70
   192
  0
VERTEX
  5
1DC5
  8
0
 10
20.00000000000007
 20
709.0000000000001
 30
30.00000000000004
 70
   192
  0
VERTEX
  5
1DC6
  8
0
 10
0.0
 20
0.0
 30
0.0
 70
   128
 71
     3
 72
     4
 73
    -1
  0
VERTEX
  5
1DC7
  8
0
 10
0.0
 20
0.0
 30
0.0
 70
   128
 71
     2
 72
    -3
 73
     1
  0
SEQEND
  5
1E92
  8
0
  0
POLYLINE
  5
1DC8
  8
0
 66
     1
 10
0.0
 20
0.0
 30
0.0
 70
    64
 71
     4
 72
     2
  0
VERTEX
  5
1DC9
  8
0
 10
-19.9999999999999
 20
709.0000000000001
 30
32.00000000000004
 70
   192
  0
VERTEX
  5
1DCA
  8
0
 10
-19.9999999999999
 20
709.0000000000001
 30
30.00000000000004
 70
   192
  0
VERTEX
  5
1DCB
  8
0
 10
20.00000000000007
 20
709.0000000000001
 30
30.00000000000004
 70
   192
  0
VERTEX
  5
1DCC
  8
0
 10
20.00000000000007
 20
709.0000000000001
 30
32.00000000000004
 70
   192
  0
VERTEX
  5
1DCD
  8
0
 10
0.0
 20
0.0
 30
0.0
 70
   128
 71
     3
 72
     4
 73
    -1
  0
VERTEX
  5
1DCE
  8
0
 10
0.0
 20
0.0
 30
0.0
 70
   128
 71
     2
 72
    -3
 73
     1
  0
SEQEND
  5
1E93
  8
0
  0
ENDBLK
  5
1E85
  8
0
  0
ENDSEC
  0
SECTION
  2
ENTITIES
  0
INSERT
  5
FAC
  8
0
  2
*X1
 10
0.0
 20
0.0
 30
0.0
  0
INSERT
  5
FAD
  8
0
  2
*X2
 10
0.0
 20
0.0
 30
0.0
  0
INSERT
  5
FAE
  8
0
  2
*X3
 10
0.0
 20
0.0
 30
0.0
  0
INSERT
  5
FAF
  8
0
  2
*X4
 10
0.0
 20
0.0
 30
0.0
  0
INSERT
  5
FB0
  8
0
  2
*X5
 10
0.0
 20
0.0
 30
0.0
  0
INSERT
  5
FB1
  8
0
  2
*X6
 10
0.0
 20
0.0
 30
0.0
  0
INSERT
  5
FB2
  8
0
  2
*X7
 10
0.0
 20
0.0
 30
0.0
  0
INSERT
  5
FB3
  8
0
  2
*X8
 10
0.0
 20
0.0
 30
0.0
  0
INSERT
  5
FB4
  8
0
  2
*X9
 10
0.0
 20
0.0
 30
0.0
  0
INSERT
  5
FB5
  8
0
  2
*X10
 10
0.0
 20
0.0
 30
0.0
  0
INSERT
  5
FB6
  8
0
  2
*X11
 10
0.0
 20
0.0
 30
0.0
  0
INSERT
  5
FB7
  8
0
  2
*X12
 10
0.0
 20
0.0
 30
0.0
  0
INSERT
  5
FB8
  8
0
  2
*X13
 10
0.0
 20
0.0
 30
0.0
  0
INSERT
  5
FB9
  8
0
  2
*X14
 10
0.0
 20
0.0
 30
0.0
  0
INSERT
  5
FBA
  8
0
  2
*X15
 10
0.0
 20
0.0
 30
0.0
  0
INSERT
  5
FBB
  8
0
  2
*X16
 10
0.0
 20
0.0
 30
0.0
  0
INSERT
  5
FBC
  8
0
  2
*X17
 10
0.0
 20
0.0
 30
0.0
  0
INSERT
  5
FBD
  8
0
  2
*X18
 10
0.0
 20
0.0
 30
0.0
  0
INSERT
  5
FBE
  8
0
  2
*X19
 10
0.0
 20
0.0
 30
0.0
  0
ENDSEC
  0
EOF
