  0
SECTION
  2
HEADER
  9
$ACADVER
  1
AC1009
  9
$DWGCODEPAGE
  3
ansi_1250
  9
$INSBASE
 10
0.0
 20
0.0
 30
0.0
  9
$EXTMIN
 10
-500.0
 20
-91.03856954752297
 30
-235.0000000000011
  9
$EXTMAX
 10
500.0
 20
63.00000000000006
 30
235.0000000000001
  9
$LIMMIN
 10
0.0
 20
0.0
  9
$LIMMAX
 10
420.0
 20
297.0
  9
$ORTHOMODE
 70
     0
  9
$REGENMODE
 70
     1
  9
$FILLMODE
 70
     1
  9
$QTEXTMODE
 70
     0
  9
$MIRRTEXT
 70
     0
  9
$DRAGMODE
 70
     2
  9
$LTSCALE
 40
1.0
  9
$OSMODE
 70
   511
  9
$ATTMODE
 70
     1
  9
$TEXTSIZE
 40
2.5
  9
$TRACEWID
 40
1.0
  9
$TEXTSTYLE
  7
STANDARD
  9
$CLAYER
  8
0
  9
$CELTYPE
  6
BYLAYER
  9
$CECOLOR
 62
   256
  9
$DIMSCALE
 40
1.0
  9
$DIMASZ
 40
2.5
  9
$DIMEXO
 40
0.625
  9
$DIMDLI
 40
3.75
  9
$DIMRND
 40
0.0
  9
$DIMDLE
 40
0.0
  9
$DIMEXE
 40
1.25
  9
$DIMTP
 40
0.0
  9
$DIMTM
 40
0.0
  9
$DIMTXT
 40
2.5
  9
$DIMCEN
 40
-2.5
  9
$DIMTSZ
 40
0.0
  9
$DIMTOL
 70
     0
  9
$DIMLIM
 70
     0
  9
$DIMTIH
 70
     0
  9
$DIMTOH
 70
     0
  9
$DIMSE1
 70
     0
  9
$DIMSE2
 70
     0
  9
$DIMTAD
 70
     1
  9
$DIMZIN
 70
     8
  9
$DIMBLK
  1

  9
$DIMASO
 70
     1
  9
$DIMSHO
 70
     1
  9
$DIMPOST
  1

  9
$DIMAPOST
  1

  9
$DIMALT
 70
     0
  9
$DIMALTD
 70
     3
  9
$DIMALTF
 40
0.03937007874016
  9
$DIMLFAC
 40
1.0
  9
$DIMTOFL
 70
     1
  9
$DIMTVP
 40
0.0
  9
$DIMTIX
 70
     0
  9
$DIMSOXD
 70
     0
  9
$DIMSAH
 70
     0
  9
$DIMBLK1
  1

  9
$DIMBLK2
  1

  9
$DIMSTYLE
  2
ISO-25
  9
$DIMCLRD
 70
     0
  9
$DIMCLRE
 70
     0
  9
$DIMCLRT
 70
     0
  9
$DIMTFAC
 40
1.0
  9
$DIMGAP
 40
0.625
  9
$LUNITS
 70
     2
  9
$LUPREC
 70
     3
  9
$SKETCHINC
 40
1.0
  9
$FILLETRAD
 40
10.0
  9
$AUNITS
 70
     0
  9
$AUPREC
 70
     0
  9
$MENU
  1
.
  9
$ELEVATION
 40
0.0
  9
$PELEVATION
 40
0.0
  9
$THICKNESS
 40
0.0
  9
$LIMCHECK
 70
     0
  9
$CHAMFERA
 40
10.0
  9
$CHAMFERB
 40
10.0
  9
$SKPOLY
 70
     0
  9
$TDCREATE
 40
2455022.720692848
  9
$TDUPDATE
 40
2460539.478980614
  9
$TDINDWG
 40
0.0025681366
  9
$TDUSRTIMER
 40
0.0026173148
  9
$USRTIMER
 70
     1
  9
$ANGBASE
 50
0.0
  9
$ANGDIR
 70
     0
  9
$PDMODE
 70
     0
  9
$PDSIZE
 40
0.0
  9
$PLINEWID
 40
0.0
  9
$COORDS
 70
     1
  9
$SPLFRAME
 70
     0
  9
$SPLINETYPE
 70
     6
  9
$SPLINESEGS
 70
     8
  9
$ATTDIA
 70
     0
  9
$ATTREQ
 70
     1
  9
$HANDLING
 70
     1
  9
$HANDSEED
  5
18C4
  9
$SURFTAB1
 70
     6
  9
$SURFTAB2
 70
     6
  9
$SURFTYPE
 70
     6
  9
$SURFU
 70
     6
  9
$SURFV
 70
     6
  9
$UCSNAME
  2

  9
$UCSORG
 10
0.0
 20
0.0
 30
0.0
  9
$UCSXDIR
 10
1.0
 20
0.0
 30
0.0
  9
$UCSYDIR
 10
0.0
 20
1.0
 30
0.0
  9
$PUCSNAME
  2

  9
$PUCSORG
 10
0.0
 20
0.0
 30
0.0
  9
$PUCSXDIR
 10
1.0
 20
0.0
 30
0.0
  9
$PUCSYDIR
 10
0.0
 20
1.0
 30
0.0
  9
$USERI1
 70
     0
  9
$USERI2
 70
     0
  9
$USERI3
 70
     0
  9
$USERI4
 70
     0
  9
$USERI5
 70
     0
  9
$USERR1
 40
0.0
  9
$USERR2
 40
0.0
  9
$USERR3
 40
0.0
  9
$USERR4
 40
0.0
  9
$USERR5
 40
0.0
  9
$WORLDVIEW
 70
     1
  9
$SHADEDGE
 70
     3
  9
$SHADEDIF
 70
    70
  9
$TILEMODE
 70
     1
  9
$MAXACTVP
 70
    64
  9
$PLIMCHECK
 70
     0
  9
$PEXTMIN
 10
1.000000000000000E+20
 20
1.000000000000000E+20
 30
1.000000000000000E+20
  9
$PEXTMAX
 10
-1.000000000000000E+20
 20
-1.000000000000000E+20
 30
-1.000000000000000E+20
  9
$PLIMMIN
 10
0.0
 20
0.0
  9
$PLIMMAX
 10
0.0
 20
0.0
  9
$UNITMODE
 70
     0
  9
$VISRETAIN
 70
     1
  9
$PLINEGEN
 70
     0
  9
$PSLTSCALE
 70
     1
  0
ENDSEC
  0
SECTION
  2
TABLES
  0
TABLE
  2
VPORT
 70
     1
  0
VPORT
  2
*ACTIVE
 70
     0
 10
0.0
 20
0.0
 11
1.0
 21
1.0
 12
-104.810196548158
 22
-49.05096283677011
 13
0.0
 23
0.0
 14
10.0
 24
10.0
 15
10.0
 25
10.0
 16
0.5773502691896226
 26
0.5773502691896226
 36
0.5773502691896226
 17
-134.1869158878504
 27
-0.0000000000000142
 37
0.0
 40
788.7175932068903
 41
1.739930955120829
 42
50.0
 43
0.0
 44
0.0
 50
0.0
 51
0.0
 71
    16
 72
  1000
 73
     1
 74
     3
 75
     0
 76
     0
 77
     0
 78
     0
  0
ENDTAB
  0
TABLE
  2
LTYPE
 70
     1
  0
LTYPE
  2
CONTINUOUS
 70
     0
  3
Solid line
 72
    65
 73
     0
 40
0.0
  0
ENDTAB
  0
TABLE
  2
LAYER
 70
     1
  0
LAYER
  2
0
 70
     0
 62
     7
  6
CONTINUOUS
  0
ENDTAB
  0
TABLE
  2
STYLE
 70
     2
  0
STYLE
  2
STANDARD
 70
     0
 40
0.0
 41
1.0
 50
0.0
 71
     0
 42
2.5
  3
arial.ttf
  4

  0
STYLE
  2
ANNOTATIVE
 70
     0
 40
0.0
 41
1.0
 50
0.0
 71
     0
 42
2.5
  3
arial.ttf
  4

  0
ENDTAB
  0
TABLE
  2
VIEW
 70
     0
  0
ENDTAB
  0
TABLE
  2
UCS
 70
     0
  0
ENDTAB
  0
TABLE
  2
APPID
 70
     2
  0
APPID
  2
ACAD
 70
     0
  0
APPID
  2
ACADANNOTATIVE
 70
     0
  0
ENDTAB
  0
TABLE
  2
DIMSTYLE
 70
     2
  0
DIMSTYLE
  2
ISO-25
 70
     0
  3

  4

  5

  6

  7

 40
1.0
 41
2.5
 42
0.625
 43
3.75
 44
1.25
 45
0.0
 46
0.0
 47
0.0
 48
0.0
140
2.5
141
-2.5
142
0.0
143
0.03937007874016
144
1.0
145
0.0
146
1.0
147
0.625
 71
     0
 72
     0
 73
     0
 74
     0
 75
     0
 76
     0
 77
     1
 78
     8
170
     0
171
     3
172
     1
173
     0
174
     0
175
     0
176
     0
177
     0
178
     0
  0
DIMSTYLE
  2
ANNOTATIVE
 70
     0
  3

  4

  5

  6

  7

 40
0.0
 41
2.5
 42
0.625
 43
3.75
 44
1.25
 45
0.0
 46
0.0
 47
0.0
 48
0.0
140
2.5
141
-2.5
142
0.0
143
0.03937007874016
144
1.0
145
0.0
146
1.0
147
0.625
 71
     0
 72
     0
 73
     0
 74
     0
 75
     0
 76
     0
 77
     1
 78
     8
170
     0
171
     3
172
     1
173
     0
174
     0
175
     0
176
     0
177
     0
178
     0
  0
ENDTAB
  0
ENDSEC
  0
SECTION
  2
BLOCKS
  0
BLOCK
  8
0
  2
$MODEL_SPACE
 70
     0
 10
0.0
 20
0.0
 30
0.0
  3
$MODEL_SPACE
  1

  0
ENDBLK
  5
21
  8
0
  0
BLOCK
 67
     1
  8
0
  2
$PAPER_SPACE
 70
     0
 10
0.0
 20
0.0
 30
0.0
  3
$PAPER_SPACE
  1

  0
ENDBLK
  5
1D
 67
     1
  8
0
  0
BLOCK
  8
0
  2
*X1
 70
     1
 10
0.0
 20
0.0
 30
0.0
  3
*X1
  1

  0
POLYLINE
  5
1186
  8
0
 66
     1
 10
0.0
 20
0.0
 30
0.0
 70
    64
 71
    21
 72
    22
  0
VERTEX
  5
1187
  8
0
 10
426.5448267190433
 20
41.00000000000004
 30
100.0000000000002
 70
   192
  0
VERTEX
  5
1188
  8
0
 10
452.0
 20
41.00000000000004
 30
5.000000000000187
 70
   192
  0
VERTEX
  5
1189
  8
0
 10
411.790594331463
 20
-11.42018226722777
 30
5.000000000000064
 70
   192
  0
VERTEX
  5
118A
  8
0
 10
357.6527056808667
 20
-49.28521660765847
 30
5.000000000000064
 70
   192
  0
VERTEX
  5
118B
  8
0
 10
294.6204195601881
 20
-69.07417109108869
 30
5.000000000000064
 70
   192
  0
VERTEX
  5
118C
  8
0
 10
290.2501120212298
 20
-69.07417109108872
 30
21.31020978009419
 70
   192
  0
VERTEX
  5
118D
  8
0
 10
262.0
 20
-41.296541041144
 30
115.4152957353614
 70
   192
  0
VERTEX
  5
118E
  8
0
 10
357.0
 20
-15.27199598670114
 30
115.4152957353614
 70
   192
  0
VERTEX
  5
118F
  8
0
 10
278.3102097800941
 20
-69.07417109108872
 30
33.25011202122987
 70
   192
  0
VERTEX
  5
1190
  8
0
 10
262.0
 20
-69.07417109108872
 30
37.6204195601883
 70
   192
  0
VERTEX
  5
1191
  8
0
 10
262.0
 20
41.00000000000004
 30
195.0
 70
   192
  0
VERTEX
  5
1192
  8
0
 10
245.6897902199059
 20
-69.07417109108872
 30
33.25011202122988
 70
   192
  0
VERTEX
  5
1193
  8
0
 10
233.7498879787702
 20
-69.07417109108872
 30
21.31020978009418
 70
   192
  0
VERTEX
  5
1194
  8
0
 10
229.3795804398118
 20
-69.07417109108872
 30
5.000000000000052
 70
   192
  0
VERTEX
  5
1195
  8
0
 10
166.3472943191333
 20
-49.28521660765847
 30
5.000000000000052
 70
   192
  0
VERTEX
  5
1196
  8
0
 10
112.209405668537
 20
-11.42018226722777
 30
5.000000000000045
 70
   192
  0
VERTEX
  5
1197
  8
0
 10
167.0
 20
-15.27199598670117
 30
115.4152957353614
 70
   192
  0
VERTEX
  5
1198
  8
0
 10
356.9999999999999
 20
41.00000000000004
 30
169.5448267190434
 70
   192
  0
VERTEX
  5
1199
  8
0
 10
167.0
 20
41.00000000000004
 30
169.5448267190434
 70
   192
  0
VERTEX
  5
119A
  8
0
 10
72.00000000000003
 20
41.0
 30
5.00000000000004
 70
   192
  0
VERTEX
  5
119B
  8
0
 10
97.45517328095664
 20
41.00000000000004
 30
100.0
 70
   192
  0
VERTEX
  5
119C
  8
0
 10
0.0
 20
0.0
 30
0.0
 70
   128
 71
     1
 72
     2
 73
     3
  0
VERTEX
  5
119D
  8
0
 10
0.0
 20
0.0
 30
0.0
 70
   128
 71
     4
 72
     5
 73
     6
  0
VERTEX
  5
119E
  8
0
 10
0.0
 20
0.0
 30
0.0
 70
   128
 71
     7
 72
     8
 73
     4
  0
VERTEX
  5
119F
  8
0
 10
0.0
 20
0.0
 30
0.0
 70
   128
 71
     9
 72
     7
 73
     4
  0
VERTEX
  5
11A0
  8
0
 10
0.0
 20
0.0
 30
0.0
 70
   128
 71
     6
 72
     9
 73
     4
  0
VERTEX
  5
11A1
  8
0
 10
0.0
 20
0.0
 30
0.0
 70
   128
 71
     9
 72
    10
 73
     7
  0
VERTEX
  5
11A2
  8
0
 10
0.0
 20
0.0
 30
0.0
 70
   128
 71
     7
 72
    11
 73
     8
  0
VERTEX
  5
11A3
  8
0
 10
0.0
 20
0.0
 30
0.0
 70
   128
 71
     7
 72
    10
 73
    12
  0
VERTEX
  5
11A4
  8
0
 10
0.0
 20
0.0
 30
0.0
 70
   128
 71
    12
 72
    13
 73
     7
  0
VERTEX
  5
11A5
  8
0
 10
0.0
 20
0.0
 30
0.0
 70
   128
 71
    13
 72
    14
 73
    15
  0
VERTEX
  5
11A6
  8
0
 10
0.0
 20
0.0
 30
0.0
 70
   128
 71
    13
 72
    15
 73
    16
  0
VERTEX
  5
11A7
  8
0
 10
0.0
 20
0.0
 30
0.0
 70
   128
 71
     7
 72
    13
 73
    16
  0
VERTEX
  5
11A8
  8
0
 10
0.0
 20
0.0
 30
0.0
 70
   128
 71
    17
 72
     7
 73
    16
  0
VERTEX
  5
11A9
  8
0
 10
0.0
 20
0.0
 30
0.0
 70
   128
 71
     3
 72
     4
 73
     8
  0
VERTEX
  5
11AA
  8
0
 10
0.0
 20
0.0
 30
0.0
 70
   128
 71
     1
 72
     3
 73
     8
  0
VERTEX
  5
11AB
  8
0
 10
0.0
 20
0.0
 30
0.0
 70
   128
 71
    18
 72
     1
 73
     8
  0
VERTEX
  5
11AC
  8
0
 10
0.0
 20
0.0
 30
0.0
 70
   128
 71
    18
 72
     8
 73
    11
  0
VERTEX
  5
11AD
  8
0
 10
0.0
 20
0.0
 30
0.0
 70
   128
 71
    11
 72
     7
 73
    17
  0
VERTEX
  5
11AE
  8
0
 10
0.0
 20
0.0
 30
0.0
 70
   128
 71
    19
 72
    11
 73
    17
  0
VERTEX
  5
11AF
  8
0
 10
0.0
 20
0.0
 30
0.0
 70
   128
 71
    16
 72
    20
 73
    21
  0
VERTEX
  5
11B0
  8
0
 10
0.0
 20
0.0
 30
0.0
 70
   128
 71
    17
 72
    16
 73
    21
  0
VERTEX
  5
11B1
  8
0
 10
0.0
 20
0.0
 30
0.0
 70
   128
 71
    19
 72
    17
 73
    21
  0
SEQEND
  5
1882
  8
0
  0
POLYLINE
  5
11B2
  8
0
 66
     1
 10
0.0
 20
0.0
 30
0.0
 70
    64
 71
    12
 72
    10
  0
VERTEX
  5
11B3
  8
0
 10
262.0
 20
-76.0741710910887
 30
-17.4999999999999
 70
   192
  0
VERTEX
  5
11B4
  8
0
 10
262.0
 20
-69.07417109108872
 30
-27.62041956018818
 70
   192
  0
VERTEX
  5
11B5
  8
0
 10
245.6897902199059
 20
-69.07417109108872
 30
-23.25011202122976
 70
   192
  0
VERTEX
  5
11B6
  8
0
 10
246.0900974233027
 20
-76.0741710910887
 30
-10.90990257669723
 70
   192
  0
VERTEX
  5
11B7
  8
0
 10
229.3795804398118
 20
-69.07417109108872
 30
5.000000000000052
 70
   192
  0
VERTEX
  5
11B8
  8
0
 10
239.5
 20
-76.0741710910887
 30
5.000000000000064
 70
   192
  0
VERTEX
  5
11B9
  8
0
 10
233.7498879787702
 20
-69.07417109108872
 30
-11.31020978009406
 70
   192
  0
VERTEX
  5
11BA
  8
0
 10
233.7498879787702
 20
-69.07417109108872
 30
21.31020978009418
 70
   192
  0
VERTEX
  5
11BB
  8
0
 10
246.0900974233027
 20
-76.0741710910887
 30
20.90990257669736
 70
   192
  0
VERTEX
  5
11BC
  8
0
 10
262.0
 20
-69.07417109108872
 30
37.6204195601883
 70
   192
  0
VERTEX
  5
11BD
  8
0
 10
262.0
 20
-76.0741710910887
 30
27.50000000000003
 70
   192
  0
VERTEX
  5
11BE
  8
0
 10
245.6897902199059
 20
-69.07417109108872
 30
33.25011202122988
 70
   192
  0
VERTEX
  5
11BF
  8
0
 10
0.0
 20
0.0
 30
0.0
 70
   128
 71
     1
 72
     2
 73
     3
  0
VERTEX
  5
11C0
  8
0
 10
0.0
 20
0.0
 30
0.0
 70
   128
 71
     4
 72
     1
 73
     3
  0
VERTEX
  5
11C1
  8
0
 10
0.0
 20
0.0
 30
0.0
 70
   128
 71
     5
 72
     6
 73
     4
  0
VERTEX
  5
11C2
  8
0
 10
0.0
 20
0.0
 30
0.0
 70
   128
 71
     7
 72
     5
 73
     4
  0
VERTEX
  5
11C3
  8
0
 10
0.0
 20
0.0
 30
0.0
 70
   128
 71
     6
 72
     5
 73
     8
  0
VERTEX
  5
11C4
  8
0
 10
0.0
 20
0.0
 30
0.0
 70
   128
 71
     9
 72
     6
 73
     8
  0
VERTEX
  5
11C5
  8
0
 10
0.0
 20
0.0
 30
0.0
 70
   128
 71
    10
 72
    11
 73
     9
  0
VERTEX
  5
11C6
  8
0
 10
0.0
 20
0.0
 30
0.0
 70
   128
 71
    12
 72
    10
 73
     9
  0
VERTEX
  5
11C7
  8
0
 10
0.0
 20
0.0
 30
0.0
 70
   128
 71
     7
 72
     4
 73
     3
  0
VERTEX
  5
11C8
  8
0
 10
0.0
 20
0.0
 30
0.0
 70
   128
 71
    12
 72
     9
 73
     8
  0
SEQEND
  5
1883
  8
0
  0
POLYLINE
  5
11C9
  8
0
 66
     1
 10
0.0
 20
0.0
 30
0.0
 70
    64
 71
    12
 72
    10
  0
VERTEX
  5
11CA
  8
0
 10
262.0
 20
-90.00000000000028
 30
-17.4999999999999
 70
   192
  0
VERTEX
  5
11CB
  8
0
 10
262.0
 20
-76.07417109108872
 30
-17.4999999999999
 70
   192
  0
VERTEX
  5
11CC
  8
0
 10
246.0900974233027
 20
-76.0741710910887
 30
-10.90990257669723
 70
   192
  0
VERTEX
  5
11CD
  8
0
 10
250.75
 20
-90.00000000000028
 30
-14.48557158514978
 70
   192
  0
VERTEX
  5
11CE
  8
0
 10
239.5
 20
-76.0741710910887
 30
5.000000000000064
 70
   192
  0
VERTEX
  5
11CF
  8
0
 10
239.5
 20
-90.00000000000028
 30
5.000000000000045
 70
   192
  0
VERTEX
  5
11D0
  8
0
 10
242.5144284148502
 20
-90.00000000000028
 30
-6.249999999999924
 70
   192
  0
VERTEX
  5
11D1
  8
0
 10
246.0900974233027
 20
-76.0741710910887
 30
20.90990257669736
 70
   192
  0
VERTEX
  5
11D2
  8
0
 10
242.5144284148502
 20
-90.00000000000028
 30
16.25000000000004
 70
   192
  0
VERTEX
  5
11D3
  8
0
 10
262.0
 20
-76.0741710910887
 30
27.50000000000003
 70
   192
  0
VERTEX
  5
11D4
  8
0
 10
262.0
 20
-90.00000000000028
 30
27.50000000000003
 70
   192
  0
VERTEX
  5
11D5
  8
0
 10
250.75
 20
-90.00000000000028
 30
24.4855715851499
 70
   192
  0
VERTEX
  5
11D6
  8
0
 10
0.0
 20
0.0
 30
0.0
 70
   128
 71
     1
 72
     2
 73
     3
  0
VERTEX
  5
11D7
  8
0
 10
0.0
 20
0.0
 30
0.0
 70
   128
 71
     4
 72
     1
 73
     3
  0
VERTEX
  5
11D8
  8
0
 10
0.0
 20
0.0
 30
0.0
 70
   128
 71
     5
 72
     6
 73
     7
  0
VERTEX
  5
11D9
  8
0
 10
0.0
 20
0.0
 30
0.0
 70
   128
 71
     3
 72
     5
 73
     7
  0
VERTEX
  5
11DA
  8
0
 10
0.0
 20
0.0
 30
0.0
 70
   128
 71
     6
 72
     5
 73
     8
  0
VERTEX
  5
11DB
  8
0
 10
0.0
 20
0.0
 30
0.0
 70
   128
 71
     9
 72
     6
 73
     8
  0
VERTEX
  5
11DC
  8
0
 10
0.0
 20
0.0
 30
0.0
 70
   128
 71
    10
 72
    11
 73
    12
  0
VERTEX
  5
11DD
  8
0
 10
0.0
 20
0.0
 30
0.0
 70
   128
 71
     8
 72
    10
 73
    12
  0
VERTEX
  5
11DE
  8
0
 10
0.0
 20
0.0
 30
0.0
 70
   128
 71
     3
 72
     7
 73
     4
  0
VERTEX
  5
11DF
  8
0
 10
0.0
 20
0.0
 30
0.0
 70
   128
 71
     8
 72
    12
 73
     9
  0
SEQEND
  5
1884
  8
0
  0
POLYLINE
  5
11E0
  8
0
 66
     1
 10
0.0
 20
0.0
 30
0.0
 70
    64
 71
    42
 72
    43
  0
VERTEX
  5
11E1
  8
0
 10
369.1109633881277
 20
-26.82035805323727
 30
-116.4500796279642
 70
   192
  0
VERTEX
  5
11E2
  8
0
 10
377.2792154082305
 20
12.17671038666745
 30
-152.5511044366192
 70
   192
  0
VERTEX
  5
11E3
  8
0
 10
378.8067351197829
 20
-12.56910894048076
 30
-126.4397426926409
 70
   192
  0
VERTEX
  5
11E4
  8
0
 10
380.0379165601594
 20
-32.51424827458015
 30
-96.48698468990978
 70
   192
  0
VERTEX
  5
11E5
  8
0
 10
382.8792252257655
 20
-38.13948704440671
 30
-82.12504295478928
 70
   192
  0
VERTEX
  5
11E6
  8
0
 10
273.25
 20
-90.00000000000028
 30
-14.48557158514978
 70
   192
  0
VERTEX
  5
11E7
  8
0
 10
262.0
 20
-90.00000000000028
 30
-17.4999999999999
 70
   192
  0
VERTEX
  5
11E8
  8
0
 10
261.9999999999999
 20
-57.45560139427567
 30
-116.4500796279642
 70
   192
  0
VERTEX
  5
11E9
  8
0
 10
281.4855715851498
 20
-90.00000000000028
 30
-6.249999999999929
 70
   192
  0
VERTEX
  5
11EA
  8
0
 10
361.5393550526992
 20
-69.07419109253331
 30
5.000000000000064
 70
   192
  0
VERTEX
  5
11EB
  8
0
 10
284.5
 20
-90.00000000000026
 30
5.000000000000064
 70
   192
  0
VERTEX
  5
11EC
  8
0
 10
242.5144284148502
 20
-90.00000000000028
 30
-6.249999999999924
 70
   192
  0
VERTEX
  5
11ED
  8
0
 10
239.5
 20
-90.00000000000028
 30
5.000000000000051
 70
   192
  0
VERTEX
  5
11EE
  8
0
 10
162.4606449473009
 20
-69.07419109253343
 30
5.000000000000052
 70
   192
  0
VERTEX
  5
11EF
  8
0
 10
154.8890366118723
 20
-26.82035805323724
 30
-116.4500796279642
 70
   192
  0
VERTEX
  5
11F0
  8
0
 10
250.75
 20
-90.00000000000028
 30
-14.48557158514978
 70
   192
  0
VERTEX
  5
11F1
  8
0
 10
144.1895416034166
 20
-12.62942602465148
 30
-125.4679659025373
 70
   192
  0
VERTEX
  5
11F2
  8
0
 10
145.717248346479
 20
12.1194232129601
 30
-151.763311033243
 70
   192
  0
VERTEX
  5
11F3
  8
0
 10
140.0986658378414
 20
-38.15832027001531
 30
-80.64886063816449
 70
   192
  0
VERTEX
  5
11F4
  8
0
 10
142.9620834398408
 20
-32.51424827458023
 30
-95.31217387899466
 70
   192
  0
VERTEX
  5
11F5
  8
0
 10
96.79323766010108
 20
-23.67878025019465
 30
5.000000000000044
 70
   192
  0
VERTEX
  5
11F6
  8
0
 10
49.99999999999997
 20
41.00000000000003
 30
5.000000000000038
 70
   192
  0
VERTEX
  5
11F7
  8
0
 10
58.50433990857678
 20
41.00000000000004
 30
-54.44338755451214
 70
   192
  0
VERTEX
  5
11F8
  8
0
 10
83.33505965996159
 20
41.00000000000004
 30
-109.1176546082616
 70
   192
  0
VERTEX
  5
11F9
  8
0
 10
133.58816276295
 20
-39.87407596610242
 30
-66.23360902992468
 70
   192
  0
VERTEX
  5
11FA
  8
0
 10
127.0379165601593
 20
-32.51424827458018
 30
-72.57444064181595
 70
   192
  0
VERTEX
  5
11FB
  8
0
 10
125.8760833819456
 20
-13.69255078751797
 30
-104.70392204915
 70
   192
  0
VERTEX
  5
11FC
  8
0
 10
389.3851404413316
 20
-39.87893058139063
 30
-68.04147873199003
 70
   192
  0
VERTEX
  5
11FD
  8
0
 10
395.9620834398408
 20
-32.51424827458023
 30
-74.28882650014589
 70
   192
  0
VERTEX
  5
11FE
  8
0
 10
427.2067623398989
 20
-23.67878025019465
 30
5.000000000000064
 70
   192
  0
VERTEX
  5
11FF
  8
0
 10
397.1311001955782
 20
-13.57617683163534
 30
-106.0909731046326
 70
   192
  0
VERTEX
  5
1200
  8
0
 10
398.6638390363717
 20
11.2541923892198
 30
-133.5226546937824
 70
   192
  0
VERTEX
  5
1201
  8
0
 10
440.1881128875608
 20
41.00000000000004
 30
-109.8607697413258
 70
   192
  0
VERTEX
  5
1202
  8
0
 10
465.3714335054986
 20
41.00000000000004
 30
-54.86701958439676
 70
   192
  0
VERTEX
  5
1203
  8
0
 10
474.0
 20
41.00000000000004
 30
5.000000000000051
 70
   192
  0
VERTEX
  5
1204
  8
0
 10
400.5000000000001
 20
41.0
 30
-155.5046728291733
 70
   192
  0
VERTEX
  5
1205
  8
0
 10
301.2994544831678
 20
41.00000000000004
 30
-203.3255934284729
 70
   192
  0
VERTEX
  5
1206
  8
0
 10
375.5000000000001
 20
41.00000000000004
 30
-174.0579515129109
 70
   192
  0
VERTEX
  5
1207
  8
0
 10
147.5
 20
41.0
 30
-173.4201502073126
 70
   192
  0
VERTEX
  5
1208
  8
0
 10
221.5356404341945
 20
41.00000000000004
 30
-203.1024641971574
 70
   192
  0
VERTEX
  5
1209
  8
0
 10
122.5
 20
41.00000000000004
 30
-154.636305394481
 70
   192
  0
VERTEX
  5
120A
  8
0
 10
124.3429263738703
 20
11.1445927433022
 30
-132.4289190545735
 70
   192
  0
VERTEX
  5
120B
  8
0
 10
0.0
 20
0.0
 30
0.0
 70
   128
 71
     1
 72
     2
 73
     3
  0
VERTEX
  5
120C
  8
0
 10
0.0
 20
0.0
 30
0.0
 70
   128
 71
     1
 72
     4
 73
     5
  0
VERTEX
  5
120D
  8
0
 10
0.0
 20
0.0
 30
0.0
 70
   128
 71
     6
 72
     7
 73
     8
  0
VERTEX
  5
120E
  8
0
 10
0.0
 20
0.0
 30
0.0
 70
   128
 71
     8
 72
     9
 73
     6
  0
VERTEX
  5
120F
  8
0
 10
0.0
 20
0.0
 30
0.0
 70
   128
 71
    10
 72
    11
 73
     9
  0
VERTEX
  5
1210
  8
0
 10
0.0
 20
0.0
 30
0.0
 70
   128
 71
    12
 72
    13
 73
    14
  0
VERTEX
  5
1211
  8
0
 10
0.0
 20
0.0
 30
0.0
 70
   128
 71
    14
 72
    15
 73
     8
  0
VERTEX
  5
1212
  8
0
 10
0.0
 20
0.0
 30
0.0
 70
   128
 71
    14
 72
     8
 73
    16
  0
VERTEX
  5
1213
  8
0
 10
0.0
 20
0.0
 30
0.0
 70
   128
 71
    14
 72
    16
 73
    12
  0
VERTEX
  5
1214
  8
0
 10
0.0
 20
0.0
 30
0.0
 70
   128
 71
     8
 72
     7
 73
    16
  0
VERTEX
  5
1215
  8
0
 10
0.0
 20
0.0
 30
0.0
 70
   128
 71
    17
 72
    18
 73
    15
  0
VERTEX
  5
1216
  8
0
 10
0.0
 20
0.0
 30
0.0
 70
   128
 71
    15
 72
    19
 73
    20
  0
VERTEX
  5
1217
  8
0
 10
0.0
 20
0.0
 30
0.0
 70
   128
 71
    21
 72
    22
 73
    23
  0
VERTEX
  5
1218
  8
0
 10
0.0
 20
0.0
 30
0.0
 70
   128
 71
    21
 72
    23
 73
    24
  0
VERTEX
  5
1219
  8
0
 10
0.0
 20
0.0
 30
0.0
 70
   128
 71
    19
 72
    15
 73
    14
  0
VERTEX
  5
121A
  8
0
 10
0.0
 20
0.0
 30
0.0
 70
   128
 71
    14
 72
    25
 73
    19
  0
VERTEX
  5
121B
  8
0
 10
0.0
 20
0.0
 30
0.0
 70
   128
 71
    14
 72
    21
 73
    25
  0
VERTEX
  5
121C
  8
0
 10
0.0
 20
0.0
 30
0.0
 70
   128
 71
    21
 72
    26
 73
    25
  0
VERTEX
  5
121D
  8
0
 10
0.0
 20
0.0
 30
0.0
 70
   128
 71
    21
 72
    27
 73
    26
  0
VERTEX
  5
121E
  8
0
 10
0.0
 20
0.0
 30
0.0
 70
   128
 71
    28
 72
    29
 73
    30
  0
VERTEX
  5
121F
  8
0
 10
0.0
 20
0.0
 30
0.0
 70
   128
 71
    28
 72
    30
 73
    10
  0
VERTEX
  5
1220
  8
0
 10
0.0
 20
0.0
 30
0.0
 70
   128
 71
    10
 72
     9
 73
     5
  0
VERTEX
  5
1221
  8
0
 10
0.0
 20
0.0
 30
0.0
 70
   128
 71
    10
 72
     5
 73
    28
  0
VERTEX
  5
1222
  8
0
 10
0.0
 20
0.0
 30
0.0
 70
   128
 71
     9
 72
     8
 73
     1
  0
VERTEX
  5
1223
  8
0
 10
0.0
 20
0.0
 30
0.0
 70
   128
 71
     9
 72
     1
 73
     5
  0
VERTEX
  5
1224
  8
0
 10
0.0
 20
0.0
 30
0.0
 70
   128
 71
    29
 72
    31
 73
   -32
  0
VERTEX
  5
1225
  8
0
 10
0.0
 20
0.0
 30
0.0
 70
   128
 71
    29
 72
    33
 73
    34
  0
VERTEX
  5
1226
  8
0
 10
0.0
 20
0.0
 30
0.0
 70
   128
 71
    29
 72
    34
 73
    35
  0
VERTEX
  5
1227
  8
0
 10
0.0
 20
0.0
 30
0.0
 70
   128
 71
    29
 72
    35
 73
    30
  0
VERTEX
  5
1228
  8
0
 10
0.0
 20
0.0
 30
0.0
 70
   128
 71
   -29
 72
    32
 73
    36
  0
VERTEX
  5
1229
  8
0
 10
0.0
 20
0.0
 30
0.0
 70
   128
 71
    29
 72
    36
 73
    33
  0
VERTEX
  5
122A
  8
0
 10
0.0
 20
0.0
 30
0.0
 70
   128
 71
    37
 72
    38
 73
     2
  0
VERTEX
  5
122B
  8
0
 10
0.0
 20
0.0
 30
0.0
 70
   128
 71
     4
 72
     1
 73
     3
  0
VERTEX
  5
122C
  8
0
 10
0.0
 20
0.0
 30
0.0
 70
   128
 71
    18
 72
    39
 73
    40
  0
VERTEX
  5
122D
  8
0
 10
0.0
 20
0.0
 30
0.0
 70
   128
 71
     8
 72
    15
 73
    18
  0
VERTEX
  5
122E
  8
0
 10
0.0
 20
0.0
 30
0.0
 70
   128
 71
     8
 72
    18
 73
    40
  0
VERTEX
  5
122F
  8
0
 10
0.0
 20
0.0
 30
0.0
 70
   128
 71
     8
 72
    40
 73
    37
  0
VERTEX
  5
1230
  8
0
 10
0.0
 20
0.0
 30
0.0
 70
   128
 71
    37
 72
     2
 73
     1
  0
VERTEX
  5
1231
  8
0
 10
0.0
 20
0.0
 30
0.0
 70
   128
 71
    37
 72
     1
 73
     8
  0
VERTEX
  5
1232
  8
0
 10
0.0
 20
0.0
 30
0.0
 70
   128
 71
    17
 72
    15
 73
    20
  0
VERTEX
  5
1233
  8
0
 10
0.0
 20
0.0
 30
0.0
 70
   128
 71
    21
 72
    24
 73
    41
  0
VERTEX
  5
1234
  8
0
 10
0.0
 20
0.0
 30
0.0
 70
   128
 71
    21
 72
    41
 73
    42
  0
VERTEX
  5
1235
  8
0
 10
0.0
 20
0.0
 30
0.0
 70
   128
 71
    21
 72
    42
 73
    27
  0
SEQEND
  5
1885
  8
0
  0
POLYLINE
  5
1236
  8
0
 66
     1
 10
0.0
 20
0.0
 30
0.0
 70
    64
 71
    10
 72
     8
  0
VERTEX
  5
1237
  8
0
 10
89.99999999999953
 20
41.00000000000004
 30
-183.9999999999999
 70
   192
  0
VERTEX
  5
1238
  8
0
 10
89.99999999999953
 20
41.00000000000004
 30
-149.9999999999999
 70
   192
  0
VERTEX
  5
1239
  8
0
 10
89.99999999999953
 20
59.99999999999999
 30
-149.9999999999999
 70
   192
  0
VERTEX
  5
123A
  8
0
 10
89.99999999999953
 20
59.99999999999999
 30
-183.9999999999999
 70
   192
  0
VERTEX
  5
123B
  8
0
 10
72.99999999999955
 20
59.99999999999999
 30
-166.9999999999999
 70
   192
  0
VERTEX
  5
123C
  8
0
 10
72.99999999999955
 20
41.00000000000004
 30
-166.9999999999999
 70
   192
  0
VERTEX
  5
123D
  8
0
 10
77.97918471982823
 20
59.99999999999999
 30
-179.0208152801712
 70
   192
  0
VERTEX
  5
123E
  8
0
 10
77.97918471982823
 20
41.00000000000004
 30
-179.0208152801712
 70
   192
  0
VERTEX
  5
123F
  8
0
 10
77.97918471982823
 20
59.99999999999999
 30
-154.9791847198287
 70
   192
  0
VERTEX
  5
1240
  8
0
 10
77.97918471982823
 20
41.00000000000004
 30
-154.9791847198287
 70
   192
  0
VERTEX
  5
1241
  8
0
 10
0.0
 20
0.0
 30
0.0
 70
   128
 71
     8
 72
     1
 73
    -4
  0
VERTEX
  5
1242
  8
0
 10
0.0
 20
0.0
 30
0.0
 70
   128
 71
     7
 72
    -8
 73
     4
  0
VERTEX
  5
1243
  8
0
 10
0.0
 20
0.0
 30
0.0
 70
   128
 71
     6
 72
     8
 73
    -7
  0
VERTEX
  5
1244
  8
0
 10
0.0
 20
0.0
 30
0.0
 70
   128
 71
     5
 72
    -6
 73
     7
  0
VERTEX
  5
1245
  8
0
 10
0.0
 20
0.0
 30
0.0
 70
   128
 71
    10
 72
     6
 73
    -5
  0
VERTEX
  5
1246
  8
0
 10
0.0
 20
0.0
 30
0.0
 70
   128
 71
     9
 72
   -10
 73
     5
  0
VERTEX
  5
1247
  8
0
 10
0.0
 20
0.0
 30
0.0
 70
   128
 71
     2
 72
    10
 73
    -9
  0
VERTEX
  5
1248
  8
0
 10
0.0
 20
0.0
 30
0.0
 70
   128
 71
     3
 72
    -2
 73
     9
  0
SEQEND
  5
1886
  8
0
  0
POLYLINE
  5
1249
  8
0
 66
     1
 10
0.0
 20
0.0
 30
0.0
 70
    64
 71
    13
 72
    11
  0
VERTEX
  5
124A
  8
0
 10
262.0
 20
41.00000000000004
 30
-185.0000000000001
 70
   192
  0
VERTEX
  5
124B
  8
0
 10
262.0
 20
59.99999999999999
 30
-185.0000000000001
 70
   192
  0
VERTEX
  5
124C
  8
0
 10
150.3208020644301
 20
59.99999999999999
 30
-148.7132289312401
 70
   192
  0
VERTEX
  5
124D
  8
0
 10
166.9999999999999
 20
41.00000000000004
 30
-159.5448267190434
 70
   192
  0
VERTEX
  5
124E
  8
0
 10
97.45517328095664
 20
41.00000000000004
 30
100.0
 70
   192
  0
VERTEX
  5
124F
  8
0
 10
71.99999999999994
 20
41.00000000000004
 30
5.000000000000045
 70
   192
  0
VERTEX
  5
1250
  8
0
 10
81.29926190392075
 20
60.00000000000001
 30
63.71322893124
 70
   192
  0
VERTEX
  5
1251
  8
0
 10
262.0
 20
60.00000000000003
 30
195.0
 70
   192
  0
VERTEX
  5
1252
  8
0
 10
262.0
 20
41.00000000000004
 30
195.0000000000001
 70
   192
  0
VERTEX
  5
1253
  8
0
 10
167.0
 20
41.00000000000004
 30
169.5448267190434
 70
   192
  0
VERTEX
  5
1254
  8
0
 10
150.3208020644301
 20
60.00000000000002
 30
158.71322893124
 70
   192
  0
VERTEX
  5
1255
  8
0
 10
97.45517328095659
 20
41.00000000000004
 30
-90.00000000000001
 70
   192
  0
VERTEX
  5
1256
  8
0
 10
81.29926190392075
 20
60.0
 30
-53.71322893124005
 70
   192
  0
VERTEX
  5
1257
  8
0
 10
0.0
 20
0.0
 30
0.0
 70
   128
 71
     1
 72
     2
 73
     3
  0
VERTEX
  5
1258
  8
0
 10
0.0
 20
0.0
 30
0.0
 70
   128
 71
     4
 72
     1
 73
     3
  0
VERTEX
  5
1259
  8
0
 10
0.0
 20
0.0
 30
0.0
 70
   128
 71
     5
 72
     6
 73
     7
  0
VERTEX
  5
125A
  8
0
 10
0.0
 20
0.0
 30
0.0
 70
   128
 71
     8
 72
     9
 73
    10
  0
VERTEX
  5
125B
  8
0
 10
0.0
 20
0.0
 30
0.0
 70
   128
 71
    11
 72
     8
 73
    10
  0
VERTEX
  5
125C
  8
0
 10
0.0
 20
0.0
 30
0.0
 70
   128
 71
     6
 72
    12
 73
    13
  0
VERTEX
  5
125D
  8
0
 10
0.0
 20
0.0
 30
0.0
 70
   128
 71
     7
 72
     6
 73
    13
  0
VERTEX
  5
125E
  8
0
 10
0.0
 20
0.0
 30
0.0
 70
   128
 71
    12
 72
     4
 73
     3
  0
VERTEX
  5
125F
  8
0
 10
0.0
 20
0.0
 30
0.0
 70
   128
 71
    13
 72
    12
 73
     3
  0
VERTEX
  5
1260
  8
0
 10
0.0
 20
0.0
 30
0.0
 70
   128
 71
    10
 72
     5
 73
     7
  0
VERTEX
  5
1261
  8
0
 10
0.0
 20
0.0
 30
0.0
 70
   128
 71
    11
 72
    10
 73
     7
  0
SEQEND
  5
1887
  8
0
  0
POLYLINE
  5
1262
  8
0
 66
     1
 10
0.0
 20
0.0
 30
0.0
 70
    64
 71
    10
 72
     8
  0
VERTEX
  5
1263
  8
0
 10
-408.5000000000002
 20
4.999999999999993
 30
-215.0000000000005
 70
   192
  0
VERTEX
  5
1264
  8
0
 10
-421.5000000000002
 20
4.999999999999995
 30
-215.0000000000005
 70
   192
  0
VERTEX
  5
1265
  8
0
 10
-421.5000000000002
 20
4.999999999999995
 30
-235.0000000000005
 70
   192
  0
VERTEX
  5
1266
  8
0
 10
-408.5000000000001
 20
4.999999999999995
 30
-235.0000000000005
 70
   192
  0
VERTEX
  5
1267
  8
0
 10
-415.0000000000002
 20
-1.500000000000012
 30
-235.0000000000005
 70
   192
  0
VERTEX
  5
1268
  8
0
 10
-415.0000000000002
 20
-1.500000000000012
 30
-215.0000000000005
 70
   192
  0
VERTEX
  5
1269
  8
0
 10
-410.4038059222876
 20
0.4038059222874297
 30
-235.0000000000005
 70
   192
  0
VERTEX
  5
126A
  8
0
 10
-410.4038059222876
 20
0.4038059222874297
 30
-215.0000000000005
 70
   192
  0
VERTEX
  5
126B
  8
0
 10
-419.5961940777127
 20
0.4038059222874315
 30
-235.0000000000005
 70
   192
  0
VERTEX
  5
126C
  8
0
 10
-419.5961940777127
 20
0.4038059222874315
 30
-215.0000000000005
 70
   192
  0
VERTEX
  5
126D
  8
0
 10
0.0
 20
0.0
 30
0.0
 70
   128
 71
     8
 72
     1
 73
    -4
  0
VERTEX
  5
126E
  8
0
 10
0.0
 20
0.0
 30
0.0
 70
   128
 71
     7
 72
    -8
 73
     4
  0
VERTEX
  5
126F
  8
0
 10
0.0
 20
0.0
 30
0.0
 70
   128
 71
     6
 72
     8
 73
    -7
  0
VERTEX
  5
1270
  8
0
 10
0.0
 20
0.0
 30
0.0
 70
   128
 71
     5
 72
    -6
 73
     7
  0
VERTEX
  5
1271
  8
0
 10
0.0
 20
0.0
 30
0.0
 70
   128
 71
    10
 72
     6
 73
    -5
  0
VERTEX
  5
1272
  8
0
 10
0.0
 20
0.0
 30
0.0
 70
   128
 71
     9
 72
   -10
 73
     5
  0
VERTEX
  5
1273
  8
0
 10
0.0
 20
0.0
 30
0.0
 70
   128
 71
     2
 72
    10
 73
    -9
  0
VERTEX
  5
1274
  8
0
 10
0.0
 20
0.0
 30
0.0
 70
   128
 71
     3
 72
    -2
 73
     9
  0
SEQEND
  5
1888
  8
0
  0
POLYLINE
  5
1275
  8
0
 66
     1
 10
0.0
 20
0.0
 30
0.0
 70
    64
 71
    10
 72
     8
  0
VERTEX
  5
1276
  8
0
 10
-63.50000000000015
 20
4.999999999999993
 30
-215.0000000000005
 70
   192
  0
VERTEX
  5
1277
  8
0
 10
-76.50000000000018
 20
4.999999999999995
 30
-215.0000000000005
 70
   192
  0
VERTEX
  5
1278
  8
0
 10
-76.50000000000018
 20
4.999999999999995
 30
-235.0000000000005
 70
   192
  0
VERTEX
  5
1279
  8
0
 10
-63.50000000000016
 20
4.999999999999995
 30
-235.0000000000005
 70
   192
  0
VERTEX
  5
127A
  8
0
 10
-70.00000000000017
 20
-1.500000000000026
 30
-235.0000000000005
 70
   192
  0
VERTEX
  5
127B
  8
0
 10
-70.00000000000017
 20
-1.500000000000026
 30
-215.0000000000005
 70
   192
  0
VERTEX
  5
127C
  8
0
 10
-65.4038059222876
 20
0.40380592228742
 30
-235.0000000000005
 70
   192
  0
VERTEX
  5
127D
  8
0
 10
-65.4038059222876
 20
0.40380592228742
 30
-215.0000000000005
 70
   192
  0
VERTEX
  5
127E
  8
0
 10
-74.59619407771274
 20
0.4038059222874217
 30
-235.0000000000005
 70
   192
  0
VERTEX
  5
127F
  8
0
 10
-74.59619407771274
 20
0.4038059222874217
 30
-215.0000000000005
 70
   192
  0
VERTEX
  5
1280
  8
0
 10
0.0
 20
0.0
 30
0.0
 70
   128
 71
     8
 72
     1
 73
    -4
  0
VERTEX
  5
1281
  8
0
 10
0.0
 20
0.0
 30
0.0
 70
   128
 71
     7
 72
    -8
 73
     4
  0
VERTEX
  5
1282
  8
0
 10
0.0
 20
0.0
 30
0.0
 70
   128
 71
     6
 72
     8
 73
    -7
  0
VERTEX
  5
1283
  8
0
 10
0.0
 20
0.0
 30
0.0
 70
   128
 71
     5
 72
    -6
 73
     7
  0
VERTEX
  5
1284
  8
0
 10
0.0
 20
0.0
 30
0.0
 70
   128
 71
    10
 72
     6
 73
    -5
  0
VERTEX
  5
1285
  8
0
 10
0.0
 20
0.0
 30
0.0
 70
   128
 71
     9
 72
   -10
 73
     5
  0
VERTEX
  5
1286
  8
0
 10
0.0
 20
0.0
 30
0.0
 70
   128
 71
     2
 72
    10
 73
    -9
  0
VERTEX
  5
1287
  8
0
 10
0.0
 20
0.0
 30
0.0
 70
   128
 71
     3
 72
    -2
 73
     9
  0
SEQEND
  5
1889
  8
0
  0
POLYLINE
  5
1288
  8
0
 66
     1
 10
0.0
 20
0.0
 30
0.0
 70
    64
 71
    10
 72
     8
  0
VERTEX
  5
1289
  8
0
 10
76.50000000000018
 20
4.999999999999995
 30
-215.0000000000005
 70
   192
  0
VERTEX
  5
128A
  8
0
 10
63.50000000000015
 20
4.999999999999993
 30
-215.0000000000005
 70
   192
  0
VERTEX
  5
128B
  8
0
 10
63.50000000000015
 20
4.999999999999993
 30
-235.0000000000005
 70
   192
  0
VERTEX
  5
128C
  8
0
 10
76.5000000000002
 20
4.999999999999995
 30
-235.0000000000005
 70
   192
  0
VERTEX
  5
128D
  8
0
 10
70.00000000000017
 20
-1.500000000000026
 30
-235.0000000000005
 70
   192
  0
VERTEX
  5
128E
  8
0
 10
70.00000000000017
 20
-1.500000000000026
 30
-215.0000000000005
 70
   192
  0
VERTEX
  5
128F
  8
0
 10
74.59619407771274
 20
0.4038059222874217
 30
-235.0000000000005
 70
   192
  0
VERTEX
  5
1290
  8
0
 10
74.59619407771274
 20
0.4038059222874217
 30
-215.0000000000005
 70
   192
  0
VERTEX
  5
1291
  8
0
 10
65.4038059222876
 20
0.40380592228742
 30
-235.0000000000005
 70
   192
  0
VERTEX
  5
1292
  8
0
 10
65.4038059222876
 20
0.40380592228742
 30
-215.0000000000005
 70
   192
  0
VERTEX
  5
1293
  8
0
 10
0.0
 20
0.0
 30
0.0
 70
   128
 71
     8
 72
     1
 73
    -4
  0
VERTEX
  5
1294
  8
0
 10
0.0
 20
0.0
 30
0.0
 70
   128
 71
     7
 72
    -8
 73
     4
  0
VERTEX
  5
1295
  8
0
 10
0.0
 20
0.0
 30
0.0
 70
   128
 71
     6
 72
     8
 73
    -7
  0
VERTEX
  5
1296
  8
0
 10
0.0
 20
0.0
 30
0.0
 70
   128
 71
     5
 72
    -6
 73
     7
  0
VERTEX
  5
1297
  8
0
 10
0.0
 20
0.0
 30
0.0
 70
   128
 71
    10
 72
     6
 73
    -5
  0
VERTEX
  5
1298
  8
0
 10
0.0
 20
0.0
 30
0.0
 70
   128
 71
     9
 72
   -10
 73
     5
  0
VERTEX
  5
1299
  8
0
 10
0.0
 20
0.0
 30
0.0
 70
   128
 71
     2
 72
    10
 73
    -9
  0
VERTEX
  5
129A
  8
0
 10
0.0
 20
0.0
 30
0.0
 70
   128
 71
     3
 72
    -2
 73
     9
  0
SEQEND
  5
188A
  8
0
  0
POLYLINE
  5
129B
  8
0
 66
     1
 10
0.0
 20
0.0
 30
0.0
 70
    64
 71
    10
 72
     8
  0
VERTEX
  5
129C
  8
0
 10
421.5000000000002
 20
4.999999999999995
 30
-215.0000000000005
 70
   192
  0
VERTEX
  5
129D
  8
0
 10
408.5000000000002
 20
4.999999999999993
 30
-215.0000000000005
 70
   192
  0
VERTEX
  5
129E
  8
0
 10
408.5000000000002
 20
4.999999999999993
 30
-235.0000000000005
 70
   192
  0
VERTEX
  5
129F
  8
0
 10
421.5000000000002
 20
4.999999999999995
 30
-235.0000000000005
 70
   192
  0
VERTEX
  5
12A0
  8
0
 10
415.0000000000002
 20
-1.500000000000012
 30
-235.0000000000005
 70
   192
  0
VERTEX
  5
12A1
  8
0
 10
415.0000000000002
 20
-1.500000000000012
 30
-215.0000000000005
 70
   192
  0
VERTEX
  5
12A2
  8
0
 10
419.5961940777127
 20
0.4038059222874315
 30
-235.0000000000005
 70
   192
  0
VERTEX
  5
12A3
  8
0
 10
419.5961940777127
 20
0.4038059222874315
 30
-215.0000000000005
 70
   192
  0
VERTEX
  5
12A4
  8
0
 10
410.4038059222876
 20
0.4038059222874297
 30
-235.0000000000005
 70
   192
  0
VERTEX
  5
12A5
  8
0
 10
410.4038059222876
 20
0.4038059222874297
 30
-215.0000000000005
 70
   192
  0
VERTEX
  5
12A6
  8
0
 10
0.0
 20
0.0
 30
0.0
 70
   128
 71
     8
 72
     1
 73
    -4
  0
VERTEX
  5
12A7
  8
0
 10
0.0
 20
0.0
 30
0.0
 70
   128
 71
     7
 72
    -8
 73
     4
  0
VERTEX
  5
12A8
  8
0
 10
0.0
 20
0.0
 30
0.0
 70
   128
 71
     6
 72
     8
 73
    -7
  0
VERTEX
  5
12A9
  8
0
 10
0.0
 20
0.0
 30
0.0
 70
   128
 71
     5
 72
    -6
 73
     7
  0
VERTEX
  5
12AA
  8
0
 10
0.0
 20
0.0
 30
0.0
 70
   128
 71
    10
 72
     6
 73
    -5
  0
VERTEX
  5
12AB
  8
0
 10
0.0
 20
0.0
 30
0.0
 70
   128
 71
     9
 72
   -10
 73
     5
  0
VERTEX
  5
12AC
  8
0
 10
0.0
 20
0.0
 30
0.0
 70
   128
 71
     2
 72
    10
 73
    -9
  0
VERTEX
  5
12AD
  8
0
 10
0.0
 20
0.0
 30
0.0
 70
   128
 71
     3
 72
    -2
 73
     9
  0
SEQEND
  5
188B
  8
0
  0
POLYLINE
  5
12AE
  8
0
 66
     1
 10
0.0
 20
0.0
 30
0.0
 70
    64
 71
    21
 72
    22
  0
VERTEX
  5
12AF
  8
0
 10
-262.0
 20
-41.296541041144
 30
-105.4152957353613
 70
   192
  0
VERTEX
  5
12B0
  8
0
 10
-262.0
 20
-69.07417109108872
 30
-27.62041956018818
 70
   192
  0
VERTEX
  5
12B1
  8
0
 10
-245.6897902199059
 20
-69.07417109108872
 30
-23.25011202122975
 70
   192
  0
VERTEX
  5
12B2
  8
0
 10
-233.7498879787702
 20
-69.07417109108872
 30
-11.31020978009404
 70
   192
  0
VERTEX
  5
12B3
  8
0
 10
-229.3795804398118
 20
-69.07417109108872
 30
5.000000000000081
 70
   192
  0
VERTEX
  5
12B4
  8
0
 10
-166.3472943191333
 20
-49.28521660765847
 30
5.000000000000075
 70
   192
  0
VERTEX
  5
12B5
  8
0
 10
-261.9999999999999
 20
41.00000000000004
 30
-185.0
 70
   192
  0
VERTEX
  5
12B6
  8
0
 10
-357.0
 20
-15.27199598670117
 30
-105.4152957353613
 70
   192
  0
VERTEX
  5
12B7
  8
0
 10
-357.6527056808667
 20
-49.28521660765847
 30
5.000000000000064
 70
   192
  0
VERTEX
  5
12B8
  8
0
 10
-294.6204195601881
 20
-69.07417109108869
 30
5.000000000000064
 70
   192
  0
VERTEX
  5
12B9
  8
0
 10
-290.2501120212298
 20
-69.07417109108872
 30
-11.31020978009407
 70
   192
  0
VERTEX
  5
12BA
  8
0
 10
-278.3102097800941
 20
-69.07417109108872
 30
-23.25011202122976
 70
   192
  0
VERTEX
  5
12BB
  8
0
 10
-426.5448267190434
 20
41.00000000000004
 30
-90.00000000000003
 70
   192
  0
VERTEX
  5
12BC
  8
0
 10
-452.0000000000001
 20
41.00000000000004
 30
4.99999999999999
 70
   192
  0
VERTEX
  5
12BD
  8
0
 10
-411.790594331463
 20
-11.42018226722777
 30
5.000000000000064
 70
   192
  0
VERTEX
  5
12BE
  8
0
 10
-167.0
 20
-15.27199598670117
 30
-105.4152957353613
 70
   192
  0
VERTEX
  5
12BF
  8
0
 10
-112.209405668537
 20
-11.42018226722777
 30
5.000000000000083
 70
   192
  0
VERTEX
  5
12C0
  8
0
 10
-166.9999999999999
 20
41.00000000000004
 30
-159.5448267190433
 70
   192
  0
VERTEX
  5
12C1
  8
0
 10
-97.45517328095659
 20
41.00000000000004
 30
-89.99999999999994
 70
   192
  0
VERTEX
  5
12C2
  8
0
 10
-72.00000000000003
 20
41.0
 30
5.000000000000088
 70
   192
  0
VERTEX
  5
12C3
  8
0
 10
-357.0
 20
41.00000000000004
 30
-159.5448267190434
 70
   192
  0
VERTEX
  5
12C4
  8
0
 10
0.0
 20
0.0
 30
0.0
 70
   128
 71
     1
 72
     2
 73
     3
  0
VERTEX
  5
12C5
  8
0
 10
0.0
 20
0.0
 30
0.0
 70
   128
 71
     3
 72
     4
 73
     1
  0
VERTEX
  5
12C6
  8
0
 10
0.0
 20
0.0
 30
0.0
 70
   128
 71
     4
 72
     5
 73
     6
  0
VERTEX
  5
12C7
  8
0
 10
0.0
 20
0.0
 30
0.0
 70
   128
 71
     1
 72
     7
 73
     8
  0
VERTEX
  5
12C8
  8
0
 10
0.0
 20
0.0
 30
0.0
 70
   128
 71
     9
 72
    10
 73
    11
  0
VERTEX
  5
12C9
  8
0
 10
0.0
 20
0.0
 30
0.0
 70
   128
 71
     1
 72
     8
 73
     9
  0
VERTEX
  5
12CA
  8
0
 10
0.0
 20
0.0
 30
0.0
 70
   128
 71
    12
 72
     1
 73
     9
  0
VERTEX
  5
12CB
  8
0
 10
0.0
 20
0.0
 30
0.0
 70
   128
 71
    11
 72
    12
 73
     9
  0
VERTEX
  5
12CC
  8
0
 10
0.0
 20
0.0
 30
0.0
 70
   128
 71
    12
 72
     2
 73
     1
  0
VERTEX
  5
12CD
  8
0
 10
0.0
 20
0.0
 30
0.0
 70
   128
 71
    13
 72
    14
 73
    15
  0
VERTEX
  5
12CE
  8
0
 10
0.0
 20
0.0
 30
0.0
 70
   128
 71
     9
 72
     8
 73
    15
  0
VERTEX
  5
12CF
  8
0
 10
0.0
 20
0.0
 30
0.0
 70
   128
 71
     1
 72
     4
 73
     6
  0
VERTEX
  5
12D0
  8
0
 10
0.0
 20
0.0
 30
0.0
 70
   128
 71
    16
 72
     1
 73
     6
  0
VERTEX
  5
12D1
  8
0
 10
0.0
 20
0.0
 30
0.0
 70
   128
 71
    17
 72
    16
 73
     6
  0
VERTEX
  5
12D2
  8
0
 10
0.0
 20
0.0
 30
0.0
 70
   128
 71
     7
 72
     1
 73
    16
  0
VERTEX
  5
12D3
  8
0
 10
0.0
 20
0.0
 30
0.0
 70
   128
 71
    18
 72
     7
 73
    16
  0
VERTEX
  5
12D4
  8
0
 10
0.0
 20
0.0
 30
0.0
 70
   128
 71
    18
 72
    16
 73
    17
  0
VERTEX
  5
12D5
  8
0
 10
0.0
 20
0.0
 30
0.0
 70
   128
 71
    19
 72
    18
 73
    17
  0
VERTEX
  5
12D6
  8
0
 10
0.0
 20
0.0
 30
0.0
 70
   128
 71
    20
 72
    19
 73
    17
  0
VERTEX
  5
12D7
  8
0
 10
0.0
 20
0.0
 30
0.0
 70
   128
 71
    13
 72
    15
 73
     8
  0
VERTEX
  5
12D8
  8
0
 10
0.0
 20
0.0
 30
0.0
 70
   128
 71
    21
 72
    13
 73
     8
  0
VERTEX
  5
12D9
  8
0
 10
0.0
 20
0.0
 30
0.0
 70
   128
 71
     8
 72
     7
 73
    21
  0
SEQEND
  5
188C
  8
0
  0
POLYLINE
  5
12DA
  8
0
 66
     1
 10
0.0
 20
0.0
 30
0.0
 70
    64
 71
    12
 72
    10
  0
VERTEX
  5
12DB
  8
0
 10
-262.0
 20
-76.0741710910887
 30
-17.4999999999999
 70
   192
  0
VERTEX
  5
12DC
  8
0
 10
-262.0
 20
-69.07417109108872
 30
-27.62041956018818
 70
   192
  0
VERTEX
  5
12DD
  8
0
 10
-278.3102097800941
 20
-69.07417109108872
 30
-23.25011202122976
 70
   192
  0
VERTEX
  5
12DE
  8
0
 10
-277.9099025766973
 20
-76.0741710910887
 30
-10.90990257669723
 70
   192
  0
VERTEX
  5
12DF
  8
0
 10
-294.6204195601882
 20
-69.07417109108872
 30
5.000000000000058
 70
   192
  0
VERTEX
  5
12E0
  8
0
 10
-284.4999999999999
 20
-76.0741710910887
 30
5.000000000000061
 70
   192
  0
VERTEX
  5
12E1
  8
0
 10
-290.2501120212298
 20
-69.07417109108872
 30
-11.31020978009407
 70
   192
  0
VERTEX
  5
12E2
  8
0
 10
-290.2501120212298
 20
-69.07417109108872
 30
21.31020978009419
 70
   192
  0
VERTEX
  5
12E3
  8
0
 10
-277.9099025766973
 20
-76.0741710910887
 30
20.90990257669736
 70
   192
  0
VERTEX
  5
12E4
  8
0
 10
-262.0
 20
-69.07417109108872
 30
37.6204195601883
 70
   192
  0
VERTEX
  5
12E5
  8
0
 10
-262.0
 20
-76.0741710910887
 30
27.50000000000003
 70
   192
  0
VERTEX
  5
12E6
  8
0
 10
-278.3102097800941
 20
-69.07417109108872
 30
33.25011202122987
 70
   192
  0
VERTEX
  5
12E7
  8
0
 10
0.0
 20
0.0
 30
0.0
 70
   128
 71
     1
 72
     2
 73
     3
  0
VERTEX
  5
12E8
  8
0
 10
0.0
 20
0.0
 30
0.0
 70
   128
 71
     4
 72
     1
 73
     3
  0
VERTEX
  5
12E9
  8
0
 10
0.0
 20
0.0
 30
0.0
 70
   128
 71
     5
 72
     6
 73
     4
  0
VERTEX
  5
12EA
  8
0
 10
0.0
 20
0.0
 30
0.0
 70
   128
 71
     7
 72
     5
 73
     4
  0
VERTEX
  5
12EB
  8
0
 10
0.0
 20
0.0
 30
0.0
 70
   128
 71
     6
 72
     5
 73
     8
  0
VERTEX
  5
12EC
  8
0
 10
0.0
 20
0.0
 30
0.0
 70
   128
 71
     9
 72
     6
 73
     8
  0
VERTEX
  5
12ED
  8
0
 10
0.0
 20
0.0
 30
0.0
 70
   128
 71
    10
 72
    11
 73
     9
  0
VERTEX
  5
12EE
  8
0
 10
0.0
 20
0.0
 30
0.0
 70
   128
 71
    12
 72
    10
 73
     9
  0
VERTEX
  5
12EF
  8
0
 10
0.0
 20
0.0
 30
0.0
 70
   128
 71
     7
 72
     4
 73
     3
  0
VERTEX
  5
12F0
  8
0
 10
0.0
 20
0.0
 30
0.0
 70
   128
 71
    12
 72
     9
 73
     8
  0
SEQEND
  5
188D
  8
0
  0
POLYLINE
  5
12F1
  8
0
 66
     1
 10
0.0
 20
0.0
 30
0.0
 70
    64
 71
    12
 72
    10
  0
VERTEX
  5
12F2
  8
0
 10
-262.0
 20
-90.00000000000028
 30
-17.4999999999999
 70
   192
  0
VERTEX
  5
12F3
  8
0
 10
-262.0
 20
-76.07417109108872
 30
-17.4999999999999
 70
   192
  0
VERTEX
  5
12F4
  8
0
 10
-277.9099025766973
 20
-76.0741710910887
 30
-10.90990257669723
 70
   192
  0
VERTEX
  5
12F5
  8
0
 10
-273.25
 20
-90.00000000000028
 30
-14.48557158514978
 70
   192
  0
VERTEX
  5
12F6
  8
0
 10
-284.4999999999999
 20
-76.0741710910887
 30
5.000000000000061
 70
   192
  0
VERTEX
  5
12F7
  8
0
 10
-284.4999999999999
 20
-90.00000000000028
 30
5.00000000000006
 70
   192
  0
VERTEX
  5
12F8
  8
0
 10
-281.4855715851498
 20
-90.00000000000028
 30
-6.249999999999929
 70
   192
  0
VERTEX
  5
12F9
  8
0
 10
-277.9099025766973
 20
-76.0741710910887
 30
20.90990257669736
 70
   192
  0
VERTEX
  5
12FA
  8
0
 10
-281.4855715851498
 20
-90.00000000000028
 30
16.25000000000005
 70
   192
  0
VERTEX
  5
12FB
  8
0
 10
-262.0
 20
-76.0741710910887
 30
27.50000000000003
 70
   192
  0
VERTEX
  5
12FC
  8
0
 10
-262.0
 20
-90.00000000000028
 30
27.50000000000003
 70
   192
  0
VERTEX
  5
12FD
  8
0
 10
-273.25
 20
-90.00000000000028
 30
24.48557158514989
 70
   192
  0
VERTEX
  5
12FE
  8
0
 10
0.0
 20
0.0
 30
0.0
 70
   128
 71
     1
 72
     2
 73
     3
  0
VERTEX
  5
12FF
  8
0
 10
0.0
 20
0.0
 30
0.0
 70
   128
 71
     4
 72
     1
 73
     3
  0
VERTEX
  5
1300
  8
0
 10
0.0
 20
0.0
 30
0.0
 70
   128
 71
     5
 72
     6
 73
     7
  0
VERTEX
  5
1301
  8
0
 10
0.0
 20
0.0
 30
0.0
 70
   128
 71
     3
 72
     5
 73
     7
  0
VERTEX
  5
1302
  8
0
 10
0.0
 20
0.0
 30
0.0
 70
   128
 71
     6
 72
     5
 73
     8
  0
VERTEX
  5
1303
  8
0
 10
0.0
 20
0.0
 30
0.0
 70
   128
 71
     9
 72
     6
 73
     8
  0
VERTEX
  5
1304
  8
0
 10
0.0
 20
0.0
 30
0.0
 70
   128
 71
    10
 72
    11
 73
    12
  0
VERTEX
  5
1305
  8
0
 10
0.0
 20
0.0
 30
0.0
 70
   128
 71
     8
 72
    10
 73
    12
  0
VERTEX
  5
1306
  8
0
 10
0.0
 20
0.0
 30
0.0
 70
   128
 71
     3
 72
     7
 73
     4
  0
VERTEX
  5
1307
  8
0
 10
0.0
 20
0.0
 30
0.0
 70
   128
 71
     8
 72
    12
 73
     9
  0
SEQEND
  5
188E
  8
0
  0
POLYLINE
  5
1308
  8
0
 66
     1
 10
0.0
 20
0.0
 30
0.0
 70
    64
 71
    10
 72
     8
  0
VERTEX
  5
1309
  8
0
 10
-89.99999999999953
 20
41.00000000000004
 30
-183.9999999999999
 70
   192
  0
VERTEX
  5
130A
  8
0
 10
-89.99999999999953
 20
41.00000000000004
 30
-149.9999999999999
 70
   192
  0
VERTEX
  5
130B
  8
0
 10
-89.99999999999953
 20
59.99999999999999
 30
-149.9999999999999
 70
   192
  0
VERTEX
  5
130C
  8
0
 10
-89.99999999999953
 20
59.99999999999999
 30
-183.9999999999999
 70
   192
  0
VERTEX
  5
130D
  8
0
 10
-106.9999999999995
 20
59.99999999999999
 30
-166.9999999999999
 70
   192
  0
VERTEX
  5
130E
  8
0
 10
-106.9999999999995
 20
41.00000000000004
 30
-166.9999999999999
 70
   192
  0
VERTEX
  5
130F
  8
0
 10
-102.0208152801708
 20
59.99999999999999
 30
-179.0208152801712
 70
   192
  0
VERTEX
  5
1310
  8
0
 10
-102.0208152801708
 20
41.00000000000004
 30
-179.0208152801712
 70
   192
  0
VERTEX
  5
1311
  8
0
 10
-102.0208152801708
 20
59.99999999999999
 30
-154.9791847198287
 70
   192
  0
VERTEX
  5
1312
  8
0
 10
-102.0208152801708
 20
41.00000000000004
 30
-154.9791847198287
 70
   192
  0
VERTEX
  5
1313
  8
0
 10
0.0
 20
0.0
 30
0.0
 70
   128
 71
     8
 72
     1
 73
    -4
  0
VERTEX
  5
1314
  8
0
 10
0.0
 20
0.0
 30
0.0
 70
   128
 71
     7
 72
    -8
 73
     4
  0
VERTEX
  5
1315
  8
0
 10
0.0
 20
0.0
 30
0.0
 70
   128
 71
     6
 72
     8
 73
    -7
  0
VERTEX
  5
1316
  8
0
 10
0.0
 20
0.0
 30
0.0
 70
   128
 71
     5
 72
    -6
 73
     7
  0
VERTEX
  5
1317
  8
0
 10
0.0
 20
0.0
 30
0.0
 70
   128
 71
    10
 72
     6
 73
    -5
  0
VERTEX
  5
1318
  8
0
 10
0.0
 20
0.0
 30
0.0
 70
   128
 71
     9
 72
   -10
 73
     5
  0
VERTEX
  5
1319
  8
0
 10
0.0
 20
0.0
 30
0.0
 70
   128
 71
     2
 72
    10
 73
    -9
  0
VERTEX
  5
131A
  8
0
 10
0.0
 20
0.0
 30
0.0
 70
   128
 71
     3
 72
    -2
 73
     9
  0
SEQEND
  5
188F
  8
0
  0
POLYLINE
  5
131B
  8
0
 66
     1
 10
0.0
 20
0.0
 30
0.0
 70
    64
 71
    13
 72
    11
  0
VERTEX
  5
131C
  8
0
 10
-262.0
 20
41.00000000000004
 30
-185.0
 70
   192
  0
VERTEX
  5
131D
  8
0
 10
-262.0
 20
59.99999999999999
 30
-185.0000000000001
 70
   192
  0
VERTEX
  5
131E
  8
0
 10
-373.6791979355699
 20
59.99999999999999
 30
-148.7132289312401
 70
   192
  0
VERTEX
  5
131F
  8
0
 10
-357.0
 20
41.00000000000004
 30
-159.5448267190434
 70
   192
  0
VERTEX
  5
1320
  8
0
 10
-426.5448267190434
 20
41.00000000000004
 30
100.0000000000001
 70
   192
  0
VERTEX
  5
1321
  8
0
 10
-452.0000000000001
 20
41.00000000000004
 30
5.000000000000029
 70
   192
  0
VERTEX
  5
1322
  8
0
 10
-442.7007380960792
 20
60.00000000000001
 30
63.71322893123997
 70
   192
  0
VERTEX
  5
1323
  8
0
 10
-262.0000000000001
 20
60.00000000000003
 30
195.0000000000001
 70
   192
  0
VERTEX
  5
1324
  8
0
 10
-262.0
 20
41.00000000000004
 30
195.0000000000001
 70
   192
  0
VERTEX
  5
1325
  8
0
 10
-357.0000000000001
 20
41.00000000000004
 30
169.5448267190434
 70
   192
  0
VERTEX
  5
1326
  8
0
 10
-373.67919793557
 20
60.00000000000002
 30
158.71322893124
 70
   192
  0
VERTEX
  5
1327
  8
0
 10
-426.5448267190434
 20
41.00000000000004
 30
-90.00000000000003
 70
   192
  0
VERTEX
  5
1328
  8
0
 10
-442.7007380960792
 20
60.0
 30
-53.7132289312401
 70
   192
  0
VERTEX
  5
1329
  8
0
 10
0.0
 20
0.0
 30
0.0
 70
   128
 71
     1
 72
     2
 73
     3
  0
VERTEX
  5
132A
  8
0
 10
0.0
 20
0.0
 30
0.0
 70
   128
 71
     4
 72
     1
 73
     3
  0
VERTEX
  5
132B
  8
0
 10
0.0
 20
0.0
 30
0.0
 70
   128
 71
     5
 72
     6
 73
     7
  0
VERTEX
  5
132C
  8
0
 10
0.0
 20
0.0
 30
0.0
 70
   128
 71
     8
 72
     9
 73
    10
  0
VERTEX
  5
132D
  8
0
 10
0.0
 20
0.0
 30
0.0
 70
   128
 71
    11
 72
     8
 73
    10
  0
VERTEX
  5
132E
  8
0
 10
0.0
 20
0.0
 30
0.0
 70
   128
 71
     6
 72
    12
 73
    13
  0
VERTEX
  5
132F
  8
0
 10
0.0
 20
0.0
 30
0.0
 70
   128
 71
     7
 72
     6
 73
    13
  0
VERTEX
  5
1330
  8
0
 10
0.0
 20
0.0
 30
0.0
 70
   128
 71
    12
 72
     4
 73
     3
  0
VERTEX
  5
1331
  8
0
 10
0.0
 20
0.0
 30
0.0
 70
   128
 71
    13
 72
    12
 73
     3
  0
VERTEX
  5
1332
  8
0
 10
0.0
 20
0.0
 30
0.0
 70
   128
 71
    10
 72
     5
 73
     7
  0
VERTEX
  5
1333
  8
0
 10
0.0
 20
0.0
 30
0.0
 70
   128
 71
    11
 72
    10
 73
     7
  0
SEQEND
  5
1890
  8
0
  0
POLYLINE
  5
1334
  8
0
 66
     1
 10
0.0
 20
0.0
 30
0.0
 70
    64
 71
    20
 72
    21
  0
VERTEX
  5
1335
  8
0
 10
-242.5144284148502
 20
-90.00000000000028
 30
16.25000000000006
 70
   192
  0
VERTEX
  5
1336
  8
0
 10
-239.5
 20
-90.00000000000028
 30
5.000000000000085
 70
   192
  0
VERTEX
  5
1337
  8
0
 10
-162.4606449473009
 20
-69.07419109253343
 30
5.000000000000076
 70
   192
  0
VERTEX
  5
1338
  8
0
 10
-153.0966266558003
 20
-29.69746042342888
 30
120.6085504270087
 70
   192
  0
VERTEX
  5
1339
  8
0
 10
-262.0
 20
-60.84535824384292
 30
120.6085504270087
 70
   192
  0
VERTEX
  5
133A
  8
0
 10
-250.75
 20
-90.00000000000028
 30
24.48557158514991
 70
   192
  0
VERTEX
  5
133B
  8
0
 10
-262.0
 20
-90.00000000000028
 30
27.50000000000003
 70
   192
  0
VERTEX
  5
133C
  8
0
 10
-273.25
 20
-90.00000000000028
 30
24.48557158514989
 70
   192
  0
VERTEX
  5
133D
  8
0
 10
-370.9033733441997
 20
-29.69746042342885
 30
120.6085504270087
 70
   192
  0
VERTEX
  5
133E
  8
0
 10
-361.5393550526992
 20
-69.07419109253331
 30
5.000000000000064
 70
   192
  0
VERTEX
  5
133F
  8
0
 10
-281.4855715851498
 20
-90.00000000000028
 30
16.25000000000005
 70
   192
  0
VERTEX
  5
1340
  8
0
 10
-284.5
 20
-90.00000000000026
 30
5.000000000000064
 70
   192
  0
VERTEX
  5
1341
  8
0
 10
-474.0
 20
41.00000000000004
 30
5.000000000000052
 70
   192
  0
VERTEX
  5
1342
  8
0
 10
-427.2067623398989
 20
-23.67878025019465
 30
5.000000000000064
 70
   192
  0
VERTEX
  5
1343
  8
0
 10
-90.48839719251117
 20
41.00000000000004
 30
129.6104734860044
 70
   192
  0
VERTEX
  5
1344
  8
0
 10
-196.4883971925112
 20
41.00000000000004
 30
206.6239814545726
 70
   192
  0
VERTEX
  5
1345
  8
0
 10
-327.5116028074889
 20
41.00000000000004
 30
206.6239814545726
 70
   192
  0
VERTEX
  5
1346
  8
0
 10
-96.79323766010108
 20
-23.67878025019465
 30
5.000000000000084
 70
   192
  0
VERTEX
  5
1347
  8
0
 10
-49.99999999999997
 20
41.00000000000003
 30
5.00000000000009
 70
   192
  0
VERTEX
  5
1348
  8
0
 10
-433.5116028074889
 20
41.00000000000004
 30
129.6104734860044
 70
   192
  0
VERTEX
  5
1349
  8
0
 10
0.0
 20
0.0
 30
0.0
 70
   128
 71
     1
 72
     2
 73
     3
  0
VERTEX
  5
134A
  8
0
 10
0.0
 20
0.0
 30
0.0
 70
   128
 71
     3
 72
     4
 73
     5
  0
VERTEX
  5
134B
  8
0
 10
0.0
 20
0.0
 30
0.0
 70
   128
 71
     3
 72
     5
 73
     6
  0
VERTEX
  5
134C
  8
0
 10
0.0
 20
0.0
 30
0.0
 70
   128
 71
     3
 72
     6
 73
     1
  0
VERTEX
  5
134D
  8
0
 10
0.0
 20
0.0
 30
0.0
 70
   128
 71
     5
 72
     7
 73
     6
  0
VERTEX
  5
134E
  8
0
 10
0.0
 20
0.0
 30
0.0
 70
   128
 71
     8
 72
     7
 73
     5
  0
VERTEX
  5
134F
  8
0
 10
0.0
 20
0.0
 30
0.0
 70
   128
 71
     5
 72
     9
 73
    10
  0
VERTEX
  5
1350
  8
0
 10
0.0
 20
0.0
 30
0.0
 70
   128
 71
     5
 72
    10
 73
    11
  0
VERTEX
  5
1351
  8
0
 10
0.0
 20
0.0
 30
0.0
 70
   128
 71
     5
 72
    11
 73
     8
  0
VERTEX
  5
1352
  8
0
 10
0.0
 20
0.0
 30
0.0
 70
   128
 71
    10
 72
    12
 73
    11
  0
VERTEX
  5
1353
  8
0
 10
0.0
 20
0.0
 30
0.0
 70
   128
 71
     9
 72
    13
 73
    14
  0
VERTEX
  5
1354
  8
0
 10
0.0
 20
0.0
 30
0.0
 70
   128
 71
    14
 72
    10
 73
     9
  0
VERTEX
  5
1355
  8
0
 10
0.0
 20
0.0
 30
0.0
 70
   128
 71
     4
 72
    15
 73
    16
  0
VERTEX
  5
1356
  8
0
 10
0.0
 20
0.0
 30
0.0
 70
   128
 71
    16
 72
     5
 73
     4
  0
VERTEX
  5
1357
  8
0
 10
0.0
 20
0.0
 30
0.0
 70
   128
 71
    16
 72
    17
 73
     9
  0
VERTEX
  5
1358
  8
0
 10
0.0
 20
0.0
 30
0.0
 70
   128
 71
    16
 72
     9
 73
     5
  0
VERTEX
  5
1359
  8
0
 10
0.0
 20
0.0
 30
0.0
 70
   128
 71
     3
 72
    18
 73
     4
  0
VERTEX
  5
135A
  8
0
 10
0.0
 20
0.0
 30
0.0
 70
   128
 71
    15
 72
     4
 73
    18
  0
VERTEX
  5
135B
  8
0
 10
0.0
 20
0.0
 30
0.0
 70
   128
 71
    15
 72
    18
 73
    19
  0
VERTEX
  5
135C
  8
0
 10
0.0
 20
0.0
 30
0.0
 70
   128
 71
    13
 72
     9
 73
    17
  0
VERTEX
  5
135D
  8
0
 10
0.0
 20
0.0
 30
0.0
 70
   128
 71
    13
 72
    17
 73
    20
  0
SEQEND
  5
1891
  8
0
  0
POLYLINE
  5
135E
  8
0
 66
     1
 10
0.0
 20
0.0
 30
0.0
 70
    64
 71
     6
 72
     4
  0
VERTEX
  5
135F
  8
0
 10
147.5000000000001
 20
41.00000000000006
 30
-173.4201502073126
 70
   192
  0
VERTEX
  5
1360
  8
0
 10
147.5000000000001
 20
41.00000000000006
 30
-215.0
 70
   192
  0
VERTEX
  5
1361
  8
0
 10
375.5
 20
41.00000000000004
 30
-215.0
 70
   192
  0
VERTEX
  5
1362
  8
0
 10
375.5000000000001
 20
41.00000000000003
 30
-174.057951512911
 70
   192
  0
VERTEX
  5
1363
  8
0
 10
301.2994544831678
 20
41.00000000000004
 30
-203.3255934284729
 70
   192
  0
VERTEX
  5
1364
  8
0
 10
221.5356404341945
 20
41.00000000000004
 30
-203.1024641971574
 70
   192
  0
VERTEX
  5
1365
  8
0
 10
0.0
 20
0.0
 30
0.0
 70
   128
 71
     3
 72
     4
 73
    -5
  0
VERTEX
  5
1366
  8
0
 10
0.0
 20
0.0
 30
0.0
 70
   128
 71
    -6
 72
     2
 73
    -3
  0
VERTEX
  5
1367
  8
0
 10
0.0
 20
0.0
 30
0.0
 70
   128
 71
     5
 72
    -6
 73
    -3
  0
VERTEX
  5
1368
  8
0
 10
0.0
 20
0.0
 30
0.0
 70
   128
 71
     6
 72
     1
 73
    -2
  0
SEQEND
  5
1892
  8
0
  0
POLYLINE
  5
1369
  8
0
 66
     1
 10
0.0
 20
0.0
 30
0.0
 70
    64
 71
    76
 72
    82
  0
VERTEX
  5
136A
  8
0
 10
147.5000000000001
 20
41.00000000000003
 30
-215.0
 70
   192
  0
VERTEX
  5
136B
  8
0
 10
142.9620834398407
 20
-32.51424827458018
 30
-215.0
 70
   192
  0
VERTEX
  5
136C
  8
0
 10
140.4642303117093
 20
-37.8346906607351
 30
-215.0
 70
   192
  0
VERTEX
  5
136D
  8
0
 10
135.0000000000001
 20
-39.9999999999999
 30
-215.0
 70
   192
  0
VERTEX
  5
136E
  8
0
 10
129.5357696882908
 20
-37.83469066073509
 30
-215.0
 70
   192
  0
VERTEX
  5
136F
  8
0
 10
127.0379165601594
 20
-32.51424827458017
 30
-215.0
 70
   192
  0
VERTEX
  5
1370
  8
0
 10
122.5
 20
41.00000000000004
 30
-215.0
 70
   192
  0
VERTEX
  5
1371
  8
0
 10
-122.5000000000001
 20
41.00000000000004
 30
-215.0
 70
   192
  0
VERTEX
  5
1372
  8
0
 10
-127.0379165601593
 20
-32.51424827458017
 30
-215.0
 70
   192
  0
VERTEX
  5
1373
  8
0
 10
-129.5357696882908
 20
-37.83469066073509
 30
-215.0
 70
   192
  0
VERTEX
  5
1374
  8
0
 10
-135.0000000000001
 20
-39.9999999999999
 30
-215.0
 70
   192
  0
VERTEX
  5
1375
  8
0
 10
-140.4642303117093
 20
-37.8346906607351
 30
-215.0
 70
   192
  0
VERTEX
  5
1376
  8
0
 10
-142.9620834398407
 20
-32.51424827458018
 30
-215.0
 70
   192
  0
VERTEX
  5
1377
  8
0
 10
-147.5000000000001
 20
41.00000000000005
 30
-215.0
 70
   192
  0
VERTEX
  5
1378
  8
0
 10
-375.5000000000001
 20
41.00000000000004
 30
-215.0
 70
   192
  0
VERTEX
  5
1379
  8
0
 10
-380.0379165601593
 20
-32.51424827458021
 30
-215.0
 70
   192
  0
VERTEX
  5
137A
  8
0
 10
-382.5357696882908
 20
-37.83469066073515
 30
-215.0
 70
   192
  0
VERTEX
  5
137B
  8
0
 10
-388.0000000000001
 20
-39.99999999999996
 30
-215.0
 70
   192
  0
VERTEX
  5
137C
  8
0
 10
-393.4642303117093
 20
-37.83469066073514
 30
-215.0
 70
   192
  0
VERTEX
  5
137D
  8
0
 10
-395.9620834398408
 20
-32.5142482745802
 30
-215.0
 70
   192
  0
VERTEX
  5
137E
  8
0
 10
-400.5000000000001
 20
41.00000000000004
 30
-215.0
 70
   192
  0
VERTEX
  5
137F
  8
0
 10
-470.0000000000001
 20
41.00000000000004
 30
-215.0
 70
   192
  0
VERTEX
  5
1380
  8
0
 10
-465.0000000000001
 20
39.66025403784432
 30
-215.0
 70
   192
  0
VERTEX
  5
1381
  8
0
 10
-461.3397459621557
 20
35.99999999999995
 30
-215.0
 70
   192
  0
VERTEX
  5
1382
  8
0
 10
-460.0000000000001
 20
30.99999999999997
 30
-215.0
 70
   192
  0
VERTEX
  5
1383
  8
0
 10
-460.0
 20
-10.00000000000001
 30
-215.0
 70
   192
  0
VERTEX
  5
1384
  8
0
 10
-453.301270189222
 20
-35.00000000000003
 30
-215.0
 70
   192
  0
VERTEX
  5
1385
  8
0
 10
-435.0000000000001
 20
-53.30127018922194
 30
-215.0
 70
   192
  0
VERTEX
  5
1386
  8
0
 10
-410.0000000000001
 20
-60.0
 30
-215.0
 70
   192
  0
VERTEX
  5
1387
  8
0
 10
410.0
 20
-60.00000000000002
 30
-215.0
 70
   192
  0
VERTEX
  5
1388
  8
0
 10
435.0
 20
-53.30127018922193
 30
-215.0
 70
   192
  0
VERTEX
  5
1389
  8
0
 10
453.3012701892219
 20
-35.00000000000001
 30
-215.0
 70
   192
  0
VERTEX
  5
138A
  8
0
 10
460.0
 20
-10.00000000000002
 30
-215.0
 70
   192
  0
VERTEX
  5
138B
  8
0
 10
459.9999999999999
 20
30.99999999999998
 30
-215.0
 70
   192
  0
VERTEX
  5
138C
  8
0
 10
461.3397459621557
 20
35.99999999999999
 30
-215.0
 70
   192
  0
VERTEX
  5
138D
  8
0
 10
465.0000000000001
 20
39.66025403784437
 30
-215.0
 70
   192
  0
VERTEX
  5
138E
  8
0
 10
470.0000000000001
 20
40.99999999999999
 30
-215.0
 70
   192
  0
VERTEX
  5
138F
  8
0
 10
400.5
 20
41.00000000000004
 30
-215.0
 70
   192
  0
VERTEX
  5
1390
  8
0
 10
395.9620834398408
 20
-32.5142482745802
 30
-215.0
 70
   192
  0
VERTEX
  5
1391
  8
0
 10
393.4642303117093
 20
-37.83469066073515
 30
-215.0
 70
   192
  0
VERTEX
  5
1392
  8
0
 10
388.0000000000001
 20
-39.99999999999996
 30
-215.0
 70
   192
  0
VERTEX
  5
1393
  8
0
 10
382.5357696882908
 20
-37.83469066073514
 30
-215.0
 70
   192
  0
VERTEX
  5
1394
  8
0
 10
380.0379165601593
 20
-32.51424827458019
 30
-215.0
 70
   192
  0
VERTEX
  5
1395
  8
0
 10
375.5000000000001
 20
41.00000000000004
 30
-215.0
 70
   192
  0
VERTEX
  5
1396
  8
0
 10
-63.50000000000015
 20
4.999999999999993
 30
-215.0000000000005
 70
   192
  0
VERTEX
  5
1397
  8
0
 10
-65.4038059222876
 20
0.40380592228742
 30
-215.0000000000005
 70
   192
  0
VERTEX
  5
1398
  8
0
 10
-70.00000000000017
 20
-1.500000000000026
 30
-215.0000000000005
 70
   192
  0
VERTEX
  5
1399
  8
0
 10
-74.59619407771274
 20
0.4038059222874217
 30
-215.0000000000005
 70
   192
  0
VERTEX
  5
139A
  8
0
 10
-76.50000000000018
 20
4.999999999999995
 30
-215.0000000000005
 70
   192
  0
VERTEX
  5
139B
  8
0
 10
-74.59619407771274
 20
9.596194077712566
 30
-215.0000000000005
 70
   192
  0
VERTEX
  5
139C
  8
0
 10
-70.00000000000017
 20
11.50000000000001
 30
-215.0000000000005
 70
   192
  0
VERTEX
  5
139D
  8
0
 10
-65.4038059222876
 20
9.596194077712568
 30
-215.0000000000005
 70
   192
  0
VERTEX
  5
139E
  8
0
 10
63.50000000000015
 20
4.999999999999994
 30
-215.0000000000005
 70
   192
  0
VERTEX
  5
139F
  8
0
 10
65.4038059222876
 20
9.596194077712568
 30
-215.0000000000005
 70
   192
  0
VERTEX
  5
13A0
  8
0
 10
70.00000000000017
 20
11.50000000000001
 30
-215.0000000000005
 70
   192
  0
VERTEX
  5
13A1
  8
0
 10
74.59619407771274
 20
9.596194077712568
 30
-215.0000000000005
 70
   192
  0
VERTEX
  5
13A2
  8
0
 10
76.5000000000002
 20
4.999999999999994
 30
-215.0000000000005
 70
   192
  0
VERTEX
  5
13A3
  8
0
 10
74.59619407771274
 20
0.4038059222874217
 30
-215.0000000000005
 70
   192
  0
VERTEX
  5
13A4
  8
0
 10
70.00000000000017
 20
-1.500000000000026
 30
-215.0000000000005
 70
   192
  0
VERTEX
  5
13A5
  8
0
 10
65.4038059222876
 20
0.40380592228742
 30
-215.0000000000005
 70
   192
  0
VERTEX
  5
13A6
  8
0
 10
408.5000000000002
 20
4.999999999999994
 30
-215.0000000000005
 70
   192
  0
VERTEX
  5
13A7
  8
0
 10
410.4038059222876
 20
9.596194077712557
 30
-215.0000000000005
 70
   192
  0
VERTEX
  5
13A8
  8
0
 10
415.0000000000002
 20
11.5
 30
-215.0000000000005
 70
   192
  0
VERTEX
  5
13A9
  8
0
 10
419.5961940777127
 20
9.596194077712557
 30
-215.0000000000005
 70
   192
  0
VERTEX
  5
13AA
  8
0
 10
421.5000000000002
 20
4.999999999999994
 30
-215.0000000000005
 70
   192
  0
VERTEX
  5
13AB
  8
0
 10
419.5961940777127
 20
0.4038059222874315
 30
-215.0000000000005
 70
   192
  0
VERTEX
  5
13AC
  8
0
 10
415.0000000000002
 20
-1.500000000000012
 30
-215.0000000000005
 70
   192
  0
VERTEX
  5
13AD
  8
0
 10
410.4038059222876
 20
0.4038059222874297
 30
-215.0000000000005
 70
   192
  0
VERTEX
  5
13AE
  8
0
 10
-408.5000000000002
 20
4.999999999999993
 30
-215.0000000000005
 70
   192
  0
VERTEX
  5
13AF
  8
0
 10
-410.4038059222876
 20
0.4038059222874297
 30
-215.0000000000005
 70
   192
  0
VERTEX
  5
13B0
  8
0
 10
-415.0000000000002
 20
-1.500000000000012
 30
-215.0000000000005
 70
   192
  0
VERTEX
  5
13B1
  8
0
 10
-419.5961940777127
 20
0.4038059222874315
 30
-215.0000000000005
 70
   192
  0
VERTEX
  5
13B2
  8
0
 10
-421.5000000000002
 20
4.999999999999995
 30
-215.0000000000005
 70
   192
  0
VERTEX
  5
13B3
  8
0
 10
-419.5961940777127
 20
9.596194077712557
 30
-215.0000000000005
 70
   192
  0
VERTEX
  5
13B4
  8
0
 10
-415.0000000000002
 20
11.5
 30
-215.0000000000005
 70
   192
  0
VERTEX
  5
13B5
  8
0
 10
-410.4038059222876
 20
9.596194077712557
 30
-215.0000000000005
 70
   192
  0
VERTEX
  5
13B6
  8
0
 10
0.0
 20
0.0
 30
0.0
 70
   128
 71
    14
 72
    15
 73
   -16
  0
VERTEX
  5
13B7
  8
0
 10
0.0
 20
0.0
 30
0.0
 70
   128
 71
    16
 72
   -17
 73
   -14
  0
VERTEX
  5
13B8
  8
0
 10
0.0
 20
0.0
 30
0.0
 70
   128
 71
   -53
 72
    45
 73
   -46
  0
VERTEX
  5
13B9
  8
0
 10
0.0
 20
0.0
 30
0.0
 70
   128
 71
   -45
 72
    53
 73
   -54
  0
VERTEX
  5
13BA
  8
0
 10
0.0
 20
0.0
 30
0.0
 70
   128
 71
     7
 72
    -8
 73
   -52
  0
VERTEX
  5
13BB
  8
0
 10
0.0
 20
0.0
 30
0.0
 70
   128
 71
   -54
 72
    -7
 73
   -52
  0
VERTEX
  5
13BC
  8
0
 10
0.0
 20
0.0
 30
0.0
 70
   128
 71
    52
 72
   -45
 73
   -54
  0
VERTEX
  5
13BD
  8
0
 10
0.0
 20
0.0
 30
0.0
 70
   128
 71
    54
 72
   -55
 73
    -7
  0
VERTEX
  5
13BE
  8
0
 10
0.0
 20
0.0
 30
0.0
 70
   128
 71
    55
 72
   -56
 73
    -7
  0
VERTEX
  5
13BF
  8
0
 10
0.0
 20
0.0
 30
0.0
 70
   128
 71
    56
 72
   -57
 73
    -7
  0
VERTEX
  5
13C0
  8
0
 10
0.0
 20
0.0
 30
0.0
 70
   128
 71
   -58
 72
     6
 73
    -7
  0
VERTEX
  5
13C1
  8
0
 10
0.0
 20
0.0
 30
0.0
 70
   128
 71
    57
 72
   -58
 73
    -7
  0
VERTEX
  5
13C2
  8
0
 10
0.0
 20
0.0
 30
0.0
 70
   128
 71
    58
 72
   -59
 73
    -6
  0
VERTEX
  5
13C3
  8
0
 10
0.0
 20
0.0
 30
0.0
 70
   128
 71
    59
 72
   -60
 73
    -6
  0
VERTEX
  5
13C4
  8
0
 10
0.0
 20
0.0
 30
0.0
 70
   128
 71
    -9
 72
    -6
 73
   -60
  0
VERTEX
  5
13C5
  8
0
 10
0.0
 20
0.0
 30
0.0
 70
   128
 71
   -46
 72
    -9
 73
   -60
  0
VERTEX
  5
13C6
  8
0
 10
0.0
 20
0.0
 30
0.0
 70
   128
 71
    60
 72
   -53
 73
   -46
  0
VERTEX
  5
13C7
  8
0
 10
0.0
 20
0.0
 30
0.0
 70
   128
 71
    46
 72
   -47
 73
    -9
  0
VERTEX
  5
13C8
  8
0
 10
0.0
 20
0.0
 30
0.0
 70
   128
 71
    47
 72
   -48
 73
    -9
  0
VERTEX
  5
13C9
  8
0
 10
0.0
 20
0.0
 30
0.0
 70
   128
 71
   -49
 72
     8
 73
    -9
  0
VERTEX
  5
13CA
  8
0
 10
0.0
 20
0.0
 30
0.0
 70
   128
 71
    48
 72
   -49
 73
    -9
  0
VERTEX
  5
13CB
  8
0
 10
0.0
 20
0.0
 30
0.0
 70
   128
 71
    49
 72
   -50
 73
    -8
  0
VERTEX
  5
13CC
  8
0
 10
0.0
 20
0.0
 30
0.0
 70
   128
 71
    50
 72
   -51
 73
    -8
  0
VERTEX
  5
13CD
  8
0
 10
0.0
 20
0.0
 30
0.0
 70
   128
 71
    51
 72
   -52
 73
    -8
  0
VERTEX
  5
13CE
  8
0
 10
0.0
 20
0.0
 30
0.0
 70
   128
 71
     9
 72
   -10
 73
    -6
  0
VERTEX
  5
13CF
  8
0
 10
0.0
 20
0.0
 30
0.0
 70
   128
 71
    10
 72
   -11
 73
    -6
  0
VERTEX
  5
13D0
  8
0
 10
0.0
 20
0.0
 30
0.0
 70
   128
 71
   -38
 72
    61
 73
   -62
  0
VERTEX
  5
13D1
  8
0
 10
0.0
 20
0.0
 30
0.0
 70
   128
 71
    62
 72
   -63
 73
   -38
  0
VERTEX
  5
13D2
  8
0
 10
0.0
 20
0.0
 30
0.0
 70
   128
 71
    63
 72
   -64
 73
   -38
  0
VERTEX
  5
13D3
  8
0
 10
0.0
 20
0.0
 30
0.0
 70
   128
 71
   -34
 72
   -38
 73
   -64
  0
VERTEX
  5
13D4
  8
0
 10
0.0
 20
0.0
 30
0.0
 70
   128
 71
    33
 72
   -34
 73
   -64
  0
VERTEX
  5
13D5
  8
0
 10
0.0
 20
0.0
 30
0.0
 70
   128
 71
    64
 72
   -65
 73
   -33
  0
VERTEX
  5
13D6
  8
0
 10
0.0
 20
0.0
 30
0.0
 70
   128
 71
    34
 72
   -35
 73
   -38
  0
VERTEX
  5
13D7
  8
0
 10
0.0
 20
0.0
 30
0.0
 70
   128
 71
    35
 72
   -36
 73
   -38
  0
VERTEX
  5
13D8
  8
0
 10
0.0
 20
0.0
 30
0.0
 70
   128
 71
    36
 72
    37
 73
   -38
  0
VERTEX
  5
13D9
  8
0
 10
0.0
 20
0.0
 30
0.0
 70
   128
 71
    65
 72
   -66
 73
   -33
  0
VERTEX
  5
13DA
  8
0
 10
0.0
 20
0.0
 30
0.0
 70
   128
 71
    31
 72
    32
 73
   -33
  0
VERTEX
  5
13DB
  8
0
 10
0.0
 20
0.0
 30
0.0
 70
   128
 71
   -67
 72
   -31
 73
   -33
  0
VERTEX
  5
13DC
  8
0
 10
0.0
 20
0.0
 30
0.0
 70
   128
 71
    66
 72
   -67
 73
   -33
  0
VERTEX
  5
13DD
  8
0
 10
0.0
 20
0.0
 30
0.0
 70
   128
 71
   -39
 72
    30
 73
   -31
  0
VERTEX
  5
13DE
  8
0
 10
0.0
 20
0.0
 30
0.0
 70
   128
 71
   -68
 72
   -39
 73
   -31
  0
VERTEX
  5
13DF
  8
0
 10
0.0
 20
0.0
 30
0.0
 70
   128
 71
    67
 72
   -68
 73
   -31
  0
VERTEX
  5
13E0
  8
0
 10
0.0
 20
0.0
 30
0.0
 70
   128
 71
    68
 72
   -61
 73
   -39
  0
VERTEX
  5
13E1
  8
0
 10
0.0
 20
0.0
 30
0.0
 70
   128
 71
   -61
 72
    38
 73
   -39
  0
VERTEX
  5
13E2
  8
0
 10
0.0
 20
0.0
 30
0.0
 70
   128
 71
    39
 72
   -40
 73
   -30
  0
VERTEX
  5
13E3
  8
0
 10
0.0
 20
0.0
 30
0.0
 70
   128
 71
    40
 72
   -41
 73
   -30
  0
VERTEX
  5
13E4
  8
0
 10
0.0
 20
0.0
 30
0.0
 70
   128
 71
    41
 72
   -42
 73
   -30
  0
VERTEX
  5
13E5
  8
0
 10
0.0
 20
0.0
 30
0.0
 70
   128
 71
    -2
 72
   -30
 73
   -42
  0
VERTEX
  5
13E6
  8
0
 10
0.0
 20
0.0
 30
0.0
 70
   128
 71
    42
 72
   -43
 73
    -2
  0
VERTEX
  5
13E7
  8
0
 10
0.0
 20
0.0
 30
0.0
 70
   128
 71
    44
 72
     1
 73
    -2
  0
VERTEX
  5
13E8
  8
0
 10
0.0
 20
0.0
 30
0.0
 70
   128
 71
    43
 72
   -44
 73
    -2
  0
VERTEX
  5
13E9
  8
0
 10
0.0
 20
0.0
 30
0.0
 70
   128
 71
     2
 72
    -3
 73
   -30
  0
VERTEX
  5
13EA
  8
0
 10
0.0
 20
0.0
 30
0.0
 70
   128
 71
     3
 72
    -4
 73
   -30
  0
VERTEX
  5
13EB
  8
0
 10
0.0
 20
0.0
 30
0.0
 70
   128
 71
    29
 72
   -30
 73
    -4
  0
VERTEX
  5
13EC
  8
0
 10
0.0
 20
0.0
 30
0.0
 70
   128
 71
     4
 72
    -5
 73
   -29
  0
VERTEX
  5
13ED
  8
0
 10
0.0
 20
0.0
 30
0.0
 70
   128
 71
     5
 72
    -6
 73
   -11
  0
VERTEX
  5
13EE
  8
0
 10
0.0
 20
0.0
 30
0.0
 70
   128
 71
   -11
 72
   -29
 73
    -5
  0
VERTEX
  5
13EF
  8
0
 10
0.0
 20
0.0
 30
0.0
 70
   128
 71
    11
 72
   -12
 73
   -29
  0
VERTEX
  5
13F0
  8
0
 10
0.0
 20
0.0
 30
0.0
 70
   128
 71
    12
 72
   -13
 73
   -29
  0
VERTEX
  5
13F1
  8
0
 10
0.0
 20
0.0
 30
0.0
 70
   128
 71
   -14
 72
   -17
 73
   -29
  0
VERTEX
  5
13F2
  8
0
 10
0.0
 20
0.0
 30
0.0
 70
   128
 71
    13
 72
   -14
 73
   -29
  0
VERTEX
  5
13F3
  8
0
 10
0.0
 20
0.0
 30
0.0
 70
   128
 71
    17
 72
   -18
 73
   -29
  0
VERTEX
  5
13F4
  8
0
 10
0.0
 20
0.0
 30
0.0
 70
   128
 71
    18
 72
   -19
 73
   -29
  0
VERTEX
  5
13F5
  8
0
 10
0.0
 20
0.0
 30
0.0
 70
   128
 71
    19
 72
   -20
 73
   -29
  0
VERTEX
  5
13F6
  8
0
 10
0.0
 20
0.0
 30
0.0
 70
   128
 71
    21
 72
    22
 73
   -23
  0
VERTEX
  5
13F7
  8
0
 10
0.0
 20
0.0
 30
0.0
 70
   128
 71
    23
 72
   -24
 73
   -21
  0
VERTEX
  5
13F8
  8
0
 10
0.0
 20
0.0
 30
0.0
 70
   128
 71
    24
 72
   -25
 73
   -21
  0
VERTEX
  5
13F9
  8
0
 10
0.0
 20
0.0
 30
0.0
 70
   128
 71
    20
 72
   -21
 73
   -69
  0
VERTEX
  5
13FA
  8
0
 10
0.0
 20
0.0
 30
0.0
 70
   128
 71
    69
 72
   -70
 73
   -20
  0
VERTEX
  5
13FB
  8
0
 10
0.0
 20
0.0
 30
0.0
 70
   128
 71
    28
 72
   -29
 73
   -20
  0
VERTEX
  5
13FC
  8
0
 10
0.0
 20
0.0
 30
0.0
 70
   128
 71
   -71
 72
   -28
 73
   -20
  0
VERTEX
  5
13FD
  8
0
 10
0.0
 20
0.0
 30
0.0
 70
   128
 71
    70
 72
   -71
 73
   -20
  0
VERTEX
  5
13FE
  8
0
 10
0.0
 20
0.0
 30
0.0
 70
   128
 71
    26
 72
    27
 73
   -28
  0
VERTEX
  5
13FF
  8
0
 10
0.0
 20
0.0
 30
0.0
 70
   128
 71
   -72
 72
   -26
 73
   -28
  0
VERTEX
  5
1400
  8
0
 10
0.0
 20
0.0
 30
0.0
 70
   128
 71
    71
 72
   -72
 73
   -28
  0
VERTEX
  5
1401
  8
0
 10
0.0
 20
0.0
 30
0.0
 70
   128
 71
    72
 72
   -73
 73
   -26
  0
VERTEX
  5
1402
  8
0
 10
0.0
 20
0.0
 30
0.0
 70
   128
 71
   -74
 72
    25
 73
   -26
  0
VERTEX
  5
1403
  8
0
 10
0.0
 20
0.0
 30
0.0
 70
   128
 71
    73
 72
   -74
 73
   -26
  0
VERTEX
  5
1404
  8
0
 10
0.0
 20
0.0
 30
0.0
 70
   128
 71
   -74
 72
   -21
 73
   -25
  0
VERTEX
  5
1405
  8
0
 10
0.0
 20
0.0
 30
0.0
 70
   128
 71
    74
 72
   -75
 73
   -21
  0
VERTEX
  5
1406
  8
0
 10
0.0
 20
0.0
 30
0.0
 70
   128
 71
    75
 72
   -76
 73
   -21
  0
VERTEX
  5
1407
  8
0
 10
0.0
 20
0.0
 30
0.0
 70
   128
 71
    76
 72
   -69
 73
   -21
  0
SEQEND
  5
1893
  8
0
  0
POLYLINE
  5
1408
  8
0
 66
     1
 10
0.0
 20
0.0
 30
0.0
 70
    64
 71
    58
 72
    64
  0
VERTEX
  5
1409
  8
0
 10
-497.5
 20
62.99999999999997
 30
-235.0
 70
   192
  0
VERTEX
  5
140A
  8
0
 10
497.5
 20
62.99999999999997
 30
-235.0
 70
   192
  0
VERTEX
  5
140B
  8
0
 10
498.7226041910272
 20
62.67432669217325
 30
-235.0
 70
   192
  0
VERTEX
  5
140C
  8
0
 10
499.6806510477567
 20
61.69730676869314
 30
-235.0
 70
   192
  0
VERTEX
  5
140D
  8
0
 10
500.0
 20
60.45049024320358
 30
-235.0
 70
   192
  0
VERTEX
  5
140E
  8
0
 10
500.0
 20
40.99999999999998
 30
-235.0000000000002
 70
   192
  0
VERTEX
  5
140F
  8
0
 10
470.0000000000001
 20
40.99999999999997
 30
-235.0000000000001
 70
   192
  0
VERTEX
  5
1410
  8
0
 10
465.0000000000001
 20
39.66025403784437
 30
-235.0000000000002
 70
   192
  0
VERTEX
  5
1411
  8
0
 10
461.3397459621557
 20
35.99999999999999
 30
-235.0000000000002
 70
   192
  0
VERTEX
  5
1412
  8
0
 10
460.0000000000001
 20
30.99999999999998
 30
-235.0000000000003
 70
   192
  0
VERTEX
  5
1413
  8
0
 10
459.9999999999999
 20
-10.00000000000002
 30
-235.0000000000006
 70
   192
  0
VERTEX
  5
1414
  8
0
 10
453.3012701892219
 20
-35.00000000000004
 30
-235.0000000000009
 70
   192
  0
VERTEX
  5
1415
  8
0
 10
435.0
 20
-53.30127018922195
 30
-235.000000000001
 70
   192
  0
VERTEX
  5
1416
  8
0
 10
410.0
 20
-60.00000000000001
 30
-235.0000000000011
 70
   192
  0
VERTEX
  5
1417
  8
0
 10
-410.0000000000001
 20
-60.00000000000002
 30
-235.0
 70
   192
  0
VERTEX
  5
1418
  8
0
 10
-435.0000000000001
 20
-53.30127018922193
 30
-235.000000000001
 70
   192
  0
VERTEX
  5
1419
  8
0
 10
-453.3012701892221
 20
-35.0
 30
-235.0000000000009
 70
   192
  0
VERTEX
  5
141A
  8
0
 10
-460.0000000000001
 20
-10.00000000000001
 30
-235.0000000000006
 70
   192
  0
VERTEX
  5
141B
  8
0
 10
-460.0000000000001
 20
30.99999999999997
 30
-235.0000000000003
 70
   192
  0
VERTEX
  5
141C
  8
0
 10
-461.3397459621557
 20
35.99999999999995
 30
-235.0000000000002
 70
   192
  0
VERTEX
  5
141D
  8
0
 10
-465.0000000000001
 20
39.66025403784432
 30
-235.0000000000002
 70
   192
  0
VERTEX
  5
141E
  8
0
 10
-470.0000000000001
 20
40.99999999999993
 30
-235.0000000000002
 70
   192
  0
VERTEX
  5
141F
  8
0
 10
-500.0
 20
40.99999999999997
 30
-235.0000000000001
 70
   192
  0
VERTEX
  5
1420
  8
0
 10
-500.0
 20
60.45049024320358
 30
-235.0
 70
   192
  0
VERTEX
  5
1421
  8
0
 10
-499.6806510477568
 20
61.69730676869316
 30
-235.0
 70
   192
  0
VERTEX
  5
1422
  8
0
 10
-498.7226041910271
 20
62.67432669217327
 30
-234.9999999999999
 70
   192
  0
VERTEX
  5
1423
  8
0
 10
76.5000000000002
 20
4.999999999999994
 30
-235.0000000000005
 70
   192
  0
VERTEX
  5
1424
  8
0
 10
74.59619407771274
 20
9.596194077712568
 30
-235.0000000000005
 70
   192
  0
VERTEX
  5
1425
  8
0
 10
70.00000000000017
 20
11.50000000000001
 30
-235.0000000000005
 70
   192
  0
VERTEX
  5
1426
  8
0
 10
65.4038059222876
 20
9.596194077712568
 30
-235.0000000000005
 70
   192
  0
VERTEX
  5
1427
  8
0
 10
63.50000000000015
 20
4.999999999999994
 30
-235.0000000000005
 70
   192
  0
VERTEX
  5
1428
  8
0
 10
65.4038059222876
 20
0.40380592228742
 30
-235.0000000000005
 70
   192
  0
VERTEX
  5
1429
  8
0
 10
70.00000000000017
 20
-1.500000000000026
 30
-235.0000000000005
 70
   192
  0
VERTEX
  5
142A
  8
0
 10
74.59619407771274
 20
0.4038059222874217
 30
-235.0000000000005
 70
   192
  0
VERTEX
  5
142B
  8
0
 10
421.5000000000002
 20
4.999999999999994
 30
-235.0000000000005
 70
   192
  0
VERTEX
  5
142C
  8
0
 10
419.5961940777127
 20
9.596194077712557
 30
-235.0000000000005
 70
   192
  0
VERTEX
  5
142D
  8
0
 10
415.0000000000002
 20
11.5
 30
-235.0000000000005
 70
   192
  0
VERTEX
  5
142E
  8
0
 10
410.4038059222876
 20
9.596194077712557
 30
-235.0000000000005
 70
   192
  0
VERTEX
  5
142F
  8
0
 10
408.5000000000002
 20
4.999999999999994
 30
-235.0000000000005
 70
   192
  0
VERTEX
  5
1430
  8
0
 10
410.4038059222876
 20
0.4038059222874297
 30
-235.0000000000005
 70
   192
  0
VERTEX
  5
1431
  8
0
 10
415.0000000000002
 20
-1.500000000000012
 30
-235.0000000000005
 70
   192
  0
VERTEX
  5
1432
  8
0
 10
419.5961940777127
 20
0.4038059222874315
 30
-235.0000000000005
 70
   192
  0
VERTEX
  5
1433
  8
0
 10
-76.50000000000018
 20
4.999999999999995
 30
-235.0000000000005
 70
   192
  0
VERTEX
  5
1434
  8
0
 10
-74.59619407771274
 20
0.4038059222874217
 30
-235.0000000000005
 70
   192
  0
VERTEX
  5
1435
  8
0
 10
-70.00000000000017
 20
-1.500000000000026
 30
-235.0000000000005
 70
   192
  0
VERTEX
  5
1436
  8
0
 10
-65.4038059222876
 20
0.40380592228742
 30
-235.0000000000005
 70
   192
  0
VERTEX
  5
1437
  8
0
 10
-63.50000000000015
 20
4.999999999999993
 30
-235.0000000000005
 70
   192
  0
VERTEX
  5
1438
  8
0
 10
-65.4038059222876
 20
9.596194077712568
 30
-235.0000000000005
 70
   192
  0
VERTEX
  5
1439
  8
0
 10
-70.00000000000017
 20
11.50000000000001
 30
-235.0000000000005
 70
   192
  0
VERTEX
  5
143A
  8
0
 10
-74.59619407771274
 20
9.596194077712566
 30
-235.0000000000005
 70
   192
  0
VERTEX
  5
143B
  8
0
 10
-421.5000000000002
 20
4.999999999999995
 30
-235.0000000000005
 70
   192
  0
VERTEX
  5
143C
  8
0
 10
-419.5961940777127
 20
0.4038059222874315
 30
-235.0000000000005
 70
   192
  0
VERTEX
  5
143D
  8
0
 10
-415.0000000000002
 20
-1.500000000000012
 30
-235.0000000000005
 70
   192
  0
VERTEX
  5
143E
  8
0
 10
-410.4038059222876
 20
0.4038059222874297
 30
-235.0000000000005
 70
   192
  0
VERTEX
  5
143F
  8
0
 10
-408.5000000000002
 20
4.999999999999993
 30
-235.0000000000005
 70
   192
  0
VERTEX
  5
1440
  8
0
 10
-410.4038059222876
 20
9.596194077712557
 30
-235.0000000000005
 70
   192
  0
VERTEX
  5
1441
  8
0
 10
-415.0000000000002
 20
11.5
 30
-235.0000000000005
 70
   192
  0
VERTEX
  5
1442
  8
0
 10
-419.5961940777127
 20
9.596194077712557
 30
-235.0000000000005
 70
   192
  0
VERTEX
  5
1443
  8
0
 10
0.0
 20
0.0
 30
0.0
 70
   128
 71
   -27
 72
    39
 73
   -40
  0
VERTEX
  5
1444
  8
0
 10
0.0
 20
0.0
 30
0.0
 70
   128
 71
    34
 72
   -27
 73
   -40
  0
VERTEX
  5
1445
  8
0
 10
0.0
 20
0.0
 30
0.0
 70
   128
 71
   -14
 72
   -34
 73
   -40
  0
VERTEX
  5
1446
  8
0
 10
0.0
 20
0.0
 30
0.0
 70
   128
 71
   -41
 72
    13
 73
   -14
  0
VERTEX
  5
1447
  8
0
 10
0.0
 20
0.0
 30
0.0
 70
   128
 71
    40
 72
   -41
 73
   -14
  0
VERTEX
  5
1448
  8
0
 10
0.0
 20
0.0
 30
0.0
 70
   128
 71
    11
 72
    12
 73
   -13
  0
VERTEX
  5
1449
  8
0
 10
0.0
 20
0.0
 30
0.0
 70
   128
 71
   -42
 72
   -11
 73
   -13
  0
VERTEX
  5
144A
  8
0
 10
0.0
 20
0.0
 30
0.0
 70
   128
 71
    41
 72
   -42
 73
   -13
  0
VERTEX
  5
144B
  8
0
 10
0.0
 20
0.0
 30
0.0
 70
   128
 71
    42
 72
   -35
 73
   -11
  0
VERTEX
  5
144C
  8
0
 10
0.0
 20
0.0
 30
0.0
 70
   128
 71
     5
 72
     6
 73
    -7
  0
VERTEX
  5
144D
  8
0
 10
0.0
 20
0.0
 30
0.0
 70
   128
 71
     4
 72
    -5
 73
    -7
  0
VERTEX
  5
144E
  8
0
 10
0.0
 20
0.0
 30
0.0
 70
   128
 71
     3
 72
    -4
 73
    -7
  0
VERTEX
  5
144F
  8
0
 10
0.0
 20
0.0
 30
0.0
 70
   128
 71
     2
 72
    -3
 73
    -7
  0
VERTEX
  5
1450
  8
0
 10
0.0
 20
0.0
 30
0.0
 70
   128
 71
     7
 72
    -8
 73
    -2
  0
VERTEX
  5
1451
  8
0
 10
0.0
 20
0.0
 30
0.0
 70
   128
 71
   -36
 72
    -2
 73
    -8
  0
VERTEX
  5
1452
  8
0
 10
0.0
 20
0.0
 30
0.0
 70
   128
 71
     8
 72
    -9
 73
   -36
  0
VERTEX
  5
1453
  8
0
 10
0.0
 20
0.0
 30
0.0
 70
   128
 71
     9
 72
   -10
 73
   -36
  0
VERTEX
  5
1454
  8
0
 10
0.0
 20
0.0
 30
0.0
 70
   128
 71
   -11
 72
    35
 73
   -36
  0
VERTEX
  5
1455
  8
0
 10
0.0
 20
0.0
 30
0.0
 70
   128
 71
    10
 72
   -11
 73
   -36
  0
VERTEX
  5
1456
  8
0
 10
0.0
 20
0.0
 30
0.0
 70
   128
 71
    36
 72
   -37
 73
    -2
  0
VERTEX
  5
1457
  8
0
 10
0.0
 20
0.0
 30
0.0
 70
   128
 71
    37
 72
   -38
 73
    -2
  0
VERTEX
  5
1458
  8
0
 10
0.0
 20
0.0
 30
0.0
 70
   128
 71
   -28
 72
    -2
 73
   -38
  0
VERTEX
  5
1459
  8
0
 10
0.0
 20
0.0
 30
0.0
 70
   128
 71
    27
 72
   -28
 73
   -38
  0
VERTEX
  5
145A
  8
0
 10
0.0
 20
0.0
 30
0.0
 70
   128
 71
    38
 72
   -39
 73
   -27
  0
VERTEX
  5
145B
  8
0
 10
0.0
 20
0.0
 30
0.0
 70
   128
 71
    28
 72
   -29
 73
    -2
  0
VERTEX
  5
145C
  8
0
 10
0.0
 20
0.0
 30
0.0
 70
   128
 71
     1
 72
    -2
 73
   -29
  0
VERTEX
  5
145D
  8
0
 10
0.0
 20
0.0
 30
0.0
 70
   128
 71
    29
 72
   -30
 73
    -1
  0
VERTEX
  5
145E
  8
0
 10
0.0
 20
0.0
 30
0.0
 70
   128
 71
    30
 72
   -31
 73
    -1
  0
VERTEX
  5
145F
  8
0
 10
0.0
 20
0.0
 30
0.0
 70
   128
 71
    31
 72
   -32
 73
    -1
  0
VERTEX
  5
1460
  8
0
 10
0.0
 20
0.0
 30
0.0
 70
   128
 71
    32
 72
   -33
 73
    -1
  0
VERTEX
  5
1461
  8
0
 10
0.0
 20
0.0
 30
0.0
 70
   128
 71
   -43
 72
    55
 73
   -56
  0
VERTEX
  5
1462
  8
0
 10
0.0
 20
0.0
 30
0.0
 70
   128
 71
    50
 72
   -43
 73
   -56
  0
VERTEX
  5
1463
  8
0
 10
0.0
 20
0.0
 30
0.0
 70
   128
 71
    56
 72
   -57
 73
   -50
  0
VERTEX
  5
1464
  8
0
 10
0.0
 20
0.0
 30
0.0
 70
   128
 71
   -57
 72
   -19
 73
   -50
  0
VERTEX
  5
1465
  8
0
 10
0.0
 20
0.0
 30
0.0
 70
   128
 71
    57
 72
   -58
 73
   -19
  0
VERTEX
  5
1466
  8
0
 10
0.0
 20
0.0
 30
0.0
 70
   128
 71
   -51
 72
    18
 73
   -19
  0
VERTEX
  5
1467
  8
0
 10
0.0
 20
0.0
 30
0.0
 70
   128
 71
    58
 72
   -51
 73
   -19
  0
VERTEX
  5
1468
  8
0
 10
0.0
 20
0.0
 30
0.0
 70
   128
 71
    51
 72
   -52
 73
   -18
  0
VERTEX
  5
1469
  8
0
 10
0.0
 20
0.0
 30
0.0
 70
   128
 71
    16
 72
    17
 73
   -18
  0
VERTEX
  5
146A
  8
0
 10
0.0
 20
0.0
 30
0.0
 70
   128
 71
   -53
 72
   -16
 73
   -18
  0
VERTEX
  5
146B
  8
0
 10
0.0
 20
0.0
 30
0.0
 70
   128
 71
    52
 72
   -53
 73
   -18
  0
VERTEX
  5
146C
  8
0
 10
0.0
 20
0.0
 30
0.0
 70
   128
 71
   -54
 72
    15
 73
   -16
  0
VERTEX
  5
146D
  8
0
 10
0.0
 20
0.0
 30
0.0
 70
   128
 71
    53
 72
   -54
 73
   -16
  0
VERTEX
  5
146E
  8
0
 10
0.0
 20
0.0
 30
0.0
 70
   128
 71
    43
 72
   -44
 73
   -15
  0
VERTEX
  5
146F
  8
0
 10
0.0
 20
0.0
 30
0.0
 70
   128
 71
   -55
 72
   -43
 73
   -15
  0
VERTEX
  5
1470
  8
0
 10
0.0
 20
0.0
 30
0.0
 70
   128
 71
    54
 72
   -55
 73
   -15
  0
VERTEX
  5
1471
  8
0
 10
0.0
 20
0.0
 30
0.0
 70
   128
 71
    44
 72
   -45
 73
   -15
  0
VERTEX
  5
1472
  8
0
 10
0.0
 20
0.0
 30
0.0
 70
   128
 71
    14
 72
   -15
 73
   -45
  0
VERTEX
  5
1473
  8
0
 10
0.0
 20
0.0
 30
0.0
 70
   128
 71
    45
 72
   -46
 73
   -14
  0
VERTEX
  5
1474
  8
0
 10
0.0
 20
0.0
 30
0.0
 70
   128
 71
   -47
 72
   -33
 73
   -14
  0
VERTEX
  5
1475
  8
0
 10
0.0
 20
0.0
 30
0.0
 70
   128
 71
    46
 72
   -47
 73
   -14
  0
VERTEX
  5
1476
  8
0
 10
0.0
 20
0.0
 30
0.0
 70
   128
 71
    47
 72
   -48
 73
   -33
  0
VERTEX
  5
1477
  8
0
 10
0.0
 20
0.0
 30
0.0
 70
   128
 71
    48
 72
   -49
 73
   -33
  0
VERTEX
  5
1478
  8
0
 10
0.0
 20
0.0
 30
0.0
 70
   128
 71
    -1
 72
   -33
 73
   -49
  0
VERTEX
  5
1479
  8
0
 10
0.0
 20
0.0
 30
0.0
 70
   128
 71
    49
 72
   -50
 73
    -1
  0
VERTEX
  5
147A
  8
0
 10
0.0
 20
0.0
 30
0.0
 70
   128
 71
    33
 72
   -34
 73
   -14
  0
VERTEX
  5
147B
  8
0
 10
0.0
 20
0.0
 30
0.0
 70
   128
 71
    19
 72
   -20
 73
   -50
  0
VERTEX
  5
147C
  8
0
 10
0.0
 20
0.0
 30
0.0
 70
   128
 71
    20
 72
   -21
 73
   -50
  0
VERTEX
  5
147D
  8
0
 10
0.0
 20
0.0
 30
0.0
 70
   128
 71
   -21
 72
    -1
 73
   -50
  0
VERTEX
  5
147E
  8
0
 10
0.0
 20
0.0
 30
0.0
 70
   128
 71
    21
 72
   -22
 73
    -1
  0
VERTEX
  5
147F
  8
0
 10
0.0
 20
0.0
 30
0.0
 70
   128
 71
    25
 72
    26
 73
    -1
  0
VERTEX
  5
1480
  8
0
 10
0.0
 20
0.0
 30
0.0
 70
   128
 71
    24
 72
   -25
 73
    -1
  0
VERTEX
  5
1481
  8
0
 10
0.0
 20
0.0
 30
0.0
 70
   128
 71
    23
 72
   -24
 73
    -1
  0
VERTEX
  5
1482
  8
0
 10
0.0
 20
0.0
 30
0.0
 70
   128
 71
    22
 72
   -23
 73
    -1
  0
SEQEND
  5
1894
  8
0
  0
POLYLINE
  5
1483
  8
0
 66
     1
 10
0.0
 20
0.0
 30
0.0
 70
    64
 71
    52
 72
    54
  0
VERTEX
  5
1484
  8
0
 10
122.5000000000001
 20
41.00000000000006
 30
-215.0
 70
   192
  0
VERTEX
  5
1485
  8
0
 10
122.5000000000001
 20
41.00000000000006
 30
-154.636305394481
 70
   192
  0
VERTEX
  5
1486
  8
0
 10
83.33505965996159
 20
41.00000000000004
 30
-109.1176546082616
 70
   192
  0
VERTEX
  5
1487
  8
0
 10
58.50433990857678
 20
41.00000000000004
 30
-54.44338755451214
 70
   192
  0
VERTEX
  5
1488
  8
0
 10
50.0
 20
41.00000000000004
 30
5.000000000000103
 70
   192
  0
VERTEX
  5
1489
  8
0
 10
90.48839719251114
 20
41.00000000000004
 30
129.6104734860044
 70
   192
  0
VERTEX
  5
148A
  8
0
 10
196.4883971925112
 20
41.00000000000004
 30
206.6239814545726
 70
   192
  0
VERTEX
  5
148B
  8
0
 10
327.5116028074889
 20
41.00000000000004
 30
206.6239814545726
 70
   192
  0
VERTEX
  5
148C
  8
0
 10
433.5116028074889
 20
41.00000000000004
 30
129.6104734860044
 70
   192
  0
VERTEX
  5
148D
  8
0
 10
474.0
 20
41.00000000000004
 30
5.000000000000051
 70
   192
  0
VERTEX
  5
148E
  8
0
 10
465.3714335054986
 20
41.00000000000004
 30
-54.86701958439676
 70
   192
  0
VERTEX
  5
148F
  8
0
 10
440.1881128875608
 20
41.00000000000004
 30
-109.8607697413258
 70
   192
  0
VERTEX
  5
1490
  8
0
 10
400.5000000000001
 20
41.00000000000004
 30
-155.5046728291733
 70
   192
  0
VERTEX
  5
1491
  8
0
 10
400.5000000000001
 20
41.00000000000003
 30
-215.0
 70
   192
  0
VERTEX
  5
1492
  8
0
 10
470.0
 20
41.00000000000004
 30
-215.0
 70
   192
  0
VERTEX
  5
1493
  8
0
 10
470.0000000000001
 20
40.99999999999997
 30
-235.0000000000001
 70
   192
  0
VERTEX
  5
1494
  8
0
 10
500.0
 20
40.99999999999997
 30
-235.0000000000001
 70
   192
  0
VERTEX
  5
1495
  8
0
 10
500.0
 20
41.00000000000004
 30
235.0
 70
   192
  0
VERTEX
  5
1496
  8
0
 10
-500.0
 20
41.00000000000004
 30
235.0
 70
   192
  0
VERTEX
  5
1497
  8
0
 10
-500.0
 20
41.00000000000004
 30
-235.0000000000001
 70
   192
  0
VERTEX
  5
1498
  8
0
 10
-470.0000000000001
 20
40.99999999999997
 30
-235.0000000000001
 70
   192
  0
VERTEX
  5
1499
  8
0
 10
-470.0000000000001
 20
40.99999999999997
 30
-215.0
 70
   192
  0
VERTEX
  5
149A
  8
0
 10
-400.5000000000001
 20
41.00000000000004
 30
-215.0
 70
   192
  0
VERTEX
  5
149B
  8
0
 10
-400.5000000000001
 20
41.00000000000003
 30
-155.5046728291733
 70
   192
  0
VERTEX
  5
149C
  8
0
 10
-440.1881128875609
 20
41.00000000000004
 30
-109.8607697413258
 70
   192
  0
VERTEX
  5
149D
  8
0
 10
-465.3714335054986
 20
41.00000000000004
 30
-54.86701958439679
 70
   192
  0
VERTEX
  5
149E
  8
0
 10
-474.0
 20
41.00000000000004
 30
5.000000000000103
 70
   192
  0
VERTEX
  5
149F
  8
0
 10
-433.5116028074889
 20
41.00000000000004
 30
129.6104734860044
 70
   192
  0
VERTEX
  5
14A0
  8
0
 10
-327.5116028074889
 20
41.00000000000004
 30
206.6239814545726
 70
   192
  0
VERTEX
  5
14A1
  8
0
 10
-196.4883971925112
 20
41.00000000000004
 30
206.6239814545726
 70
   192
  0
VERTEX
  5
14A2
  8
0
 10
-90.48839719251117
 20
41.00000000000004
 30
129.6104734860044
 70
   192
  0
VERTEX
  5
14A3
  8
0
 10
-50.0
 20
41.00000000000004
 30
5.000000000000098
 70
   192
  0
VERTEX
  5
14A4
  8
0
 10
-58.50433990857678
 20
41.00000000000004
 30
-54.44338755451215
 70
   192
  0
VERTEX
  5
14A5
  8
0
 10
-83.33505965996164
 20
41.00000000000004
 30
-109.1176546082618
 70
   192
  0
VERTEX
  5
14A6
  8
0
 10
-122.5000000000001
 20
41.00000000000004
 30
-154.636305394481
 70
   192
  0
VERTEX
  5
14A7
  8
0
 10
-122.5000000000001
 20
41.00000000000006
 30
-215.0
 70
   192
  0
VERTEX
  5
14A8
  8
0
 10
89.99999999999953
 20
41.00000000000004
 30
-149.9999999999999
 70
   192
  0
VERTEX
  5
14A9
  8
0
 10
102.0208152801708
 20
41.00000000000004
 30
-154.9791847198287
 70
   192
  0
VERTEX
  5
14AA
  8
0
 10
106.9999999999995
 20
41.00000000000004
 30
-166.9999999999999
 70
   192
  0
VERTEX
  5
14AB
  8
0
 10
102.0208152801708
 20
41.00000000000004
 30
-179.0208152801712
 70
   192
  0
VERTEX
  5
14AC
  8
0
 10
89.99999999999953
 20
41.00000000000004
 30
-183.9999999999999
 70
   192
  0
VERTEX
  5
14AD
  8
0
 10
77.97918471982823
 20
41.00000000000004
 30
-179.0208152801712
 70
   192
  0
VERTEX
  5
14AE
  8
0
 10
72.99999999999955
 20
41.00000000000004
 30
-166.9999999999999
 70
   192
  0
VERTEX
  5
14AF
  8
0
 10
77.97918471982823
 20
41.00000000000004
 30
-154.9791847198287
 70
   192
  0
VERTEX
  5
14B0
  8
0
 10
-89.99999999999953
 20
41.00000000000004
 30
-183.9999999999999
 70
   192
  0
VERTEX
  5
14B1
  8
0
 10
-102.0208152801708
 20
41.00000000000004
 30
-179.0208152801712
 70
   192
  0
VERTEX
  5
14B2
  8
0
 10
-106.9999999999995
 20
41.00000000000004
 30
-166.9999999999999
 70
   192
  0
VERTEX
  5
14B3
  8
0
 10
-102.0208152801708
 20
41.00000000000004
 30
-154.9791847198287
 70
   192
  0
VERTEX
  5
14B4
  8
0
 10
-89.99999999999953
 20
41.00000000000004
 30
-149.9999999999999
 70
   192
  0
VERTEX
  5
14B5
  8
0
 10
-77.97918471982823
 20
41.00000000000004
 30
-154.9791847198287
 70
   192
  0
VERTEX
  5
14B6
  8
0
 10
-72.99999999999955
 20
41.00000000000004
 30
-166.9999999999999
 70
   192
  0
VERTEX
  5
14B7
  8
0
 10
-77.97918471982823
 20
41.00000000000004
 30
-179.0208152801712
 70
   192
  0
VERTEX
  5
14B8
  8
0
 10
0.0
 20
0.0
 30
0.0
 70
   128
 71
    20
 72
    21
 73
   -22
  0
VERTEX
  5
14B9
  8
0
 10
0.0
 20
0.0
 30
0.0
 70
   128
 71
   -25
 72
   -20
 73
   -22
  0
VERTEX
  5
14BA
  8
0
 10
0.0
 20
0.0
 30
0.0
 70
   128
 71
    23
 72
    24
 73
   -25
  0
VERTEX
  5
14BB
  8
0
 10
0.0
 20
0.0
 30
0.0
 70
   128
 71
    22
 72
   -23
 73
   -25
  0
VERTEX
  5
14BC
  8
0
 10
0.0
 20
0.0
 30
0.0
 70
   128
 71
    25
 72
   -26
 73
   -20
  0
VERTEX
  5
14BD
  8
0
 10
0.0
 20
0.0
 30
0.0
 70
   128
 71
    26
 72
   -27
 73
   -20
  0
VERTEX
  5
14BE
  8
0
 10
0.0
 20
0.0
 30
0.0
 70
   128
 71
   -27
 72
    19
 73
   -20
  0
VERTEX
  5
14BF
  8
0
 10
0.0
 20
0.0
 30
0.0
 70
   128
 71
    27
 72
   -28
 73
   -19
  0
VERTEX
  5
14C0
  8
0
 10
0.0
 20
0.0
 30
0.0
 70
   128
 71
    28
 72
   -29
 73
   -19
  0
VERTEX
  5
14C1
  8
0
 10
0.0
 20
0.0
 30
0.0
 70
   128
 71
    29
 72
   -30
 73
   -19
  0
VERTEX
  5
14C2
  8
0
 10
0.0
 20
0.0
 30
0.0
 70
   128
 71
    -7
 72
   -19
 73
   -30
  0
VERTEX
  5
14C3
  8
0
 10
0.0
 20
0.0
 30
0.0
 70
   128
 71
   -31
 72
     6
 73
    -7
  0
VERTEX
  5
14C4
  8
0
 10
0.0
 20
0.0
 30
0.0
 70
   128
 71
    30
 72
   -31
 73
    -7
  0
VERTEX
  5
14C5
  8
0
 10
0.0
 20
0.0
 30
0.0
 70
   128
 71
    -7
 72
    18
 73
   -19
  0
VERTEX
  5
14C6
  8
0
 10
0.0
 20
0.0
 30
0.0
 70
   128
 71
     7
 72
    -8
 73
   -18
  0
VERTEX
  5
14C7
  8
0
 10
0.0
 20
0.0
 30
0.0
 70
   128
 71
     8
 72
    -9
 73
   -18
  0
VERTEX
  5
14C8
  8
0
 10
0.0
 20
0.0
 30
0.0
 70
   128
 71
     9
 72
   -10
 73
   -18
  0
VERTEX
  5
14C9
  8
0
 10
0.0
 20
0.0
 30
0.0
 70
   128
 71
   -10
 72
   -15
 73
   -18
  0
VERTEX
  5
14CA
  8
0
 10
0.0
 20
0.0
 30
0.0
 70
   128
 71
    10
 72
   -11
 73
   -15
  0
VERTEX
  5
14CB
  8
0
 10
0.0
 20
0.0
 30
0.0
 70
   128
 71
    11
 72
   -12
 73
   -15
  0
VERTEX
  5
14CC
  8
0
 10
0.0
 20
0.0
 30
0.0
 70
   128
 71
    13
 72
    14
 73
   -15
  0
VERTEX
  5
14CD
  8
0
 10
0.0
 20
0.0
 30
0.0
 70
   128
 71
    12
 72
   -13
 73
   -15
  0
VERTEX
  5
14CE
  8
0
 10
0.0
 20
0.0
 30
0.0
 70
   128
 71
   -15
 72
    17
 73
   -18
  0
VERTEX
  5
14CF
  8
0
 10
0.0
 20
0.0
 30
0.0
 70
   128
 71
    15
 72
    16
 73
   -17
  0
VERTEX
  5
14D0
  8
0
 10
0.0
 20
0.0
 30
0.0
 70
   128
 71
   -32
 72
     4
 73
    -5
  0
VERTEX
  5
14D1
  8
0
 10
0.0
 20
0.0
 30
0.0
 70
   128
 71
    -6
 72
    31
 73
   -32
  0
VERTEX
  5
14D2
  8
0
 10
0.0
 20
0.0
 30
0.0
 70
   128
 71
     5
 72
    -6
 73
   -32
  0
VERTEX
  5
14D3
  8
0
 10
0.0
 20
0.0
 30
0.0
 70
   128
 71
    32
 72
   -33
 73
    -4
  0
VERTEX
  5
14D4
  8
0
 10
0.0
 20
0.0
 30
0.0
 70
   128
 71
   -37
 72
     2
 73
    -3
  0
VERTEX
  5
14D5
  8
0
 10
0.0
 20
0.0
 30
0.0
 70
   128
 71
    -2
 72
    37
 73
   -38
  0
VERTEX
  5
14D6
  8
0
 10
0.0
 20
0.0
 30
0.0
 70
   128
 71
    38
 72
   -39
 73
    -2
  0
VERTEX
  5
14D7
  8
0
 10
0.0
 20
0.0
 30
0.0
 70
   128
 71
    39
 72
   -40
 73
    -2
  0
VERTEX
  5
14D8
  8
0
 10
0.0
 20
0.0
 30
0.0
 70
   128
 71
     1
 72
    -2
 73
   -40
  0
VERTEX
  5
14D9
  8
0
 10
0.0
 20
0.0
 30
0.0
 70
   128
 71
    40
 72
   -41
 73
    -1
  0
VERTEX
  5
14DA
  8
0
 10
0.0
 20
0.0
 30
0.0
 70
   128
 71
    41
 72
   -42
 73
    -1
  0
VERTEX
  5
14DB
  8
0
 10
0.0
 20
0.0
 30
0.0
 70
   128
 71
   -34
 72
    -1
 73
   -42
  0
VERTEX
  5
14DC
  8
0
 10
0.0
 20
0.0
 30
0.0
 70
   128
 71
    42
 72
   -43
 73
   -34
  0
VERTEX
  5
14DD
  8
0
 10
0.0
 20
0.0
 30
0.0
 70
   128
 71
    -4
 72
    33
 73
   -34
  0
VERTEX
  5
14DE
  8
0
 10
0.0
 20
0.0
 30
0.0
 70
   128
 71
   -44
 72
    -4
 73
   -34
  0
VERTEX
  5
14DF
  8
0
 10
0.0
 20
0.0
 30
0.0
 70
   128
 71
    43
 72
   -44
 73
   -34
  0
VERTEX
  5
14E0
  8
0
 10
0.0
 20
0.0
 30
0.0
 70
   128
 71
   -37
 72
     3
 73
    -4
  0
VERTEX
  5
14E1
  8
0
 10
0.0
 20
0.0
 30
0.0
 70
   128
 71
    44
 72
   -37
 73
    -4
  0
VERTEX
  5
14E2
  8
0
 10
0.0
 20
0.0
 30
0.0
 70
   128
 71
   -36
 72
    45
 73
   -46
  0
VERTEX
  5
14E3
  8
0
 10
0.0
 20
0.0
 30
0.0
 70
   128
 71
   -46
 72
    35
 73
   -36
  0
VERTEX
  5
14E4
  8
0
 10
0.0
 20
0.0
 30
0.0
 70
   128
 71
    46
 72
   -47
 73
   -35
  0
VERTEX
  5
14E5
  8
0
 10
0.0
 20
0.0
 30
0.0
 70
   128
 71
    47
 72
   -48
 73
   -35
  0
VERTEX
  5
14E6
  8
0
 10
0.0
 20
0.0
 30
0.0
 70
   128
 71
    48
 72
   -49
 73
   -35
  0
VERTEX
  5
14E7
  8
0
 10
0.0
 20
0.0
 30
0.0
 70
   128
 71
    34
 72
   -35
 73
   -49
  0
VERTEX
  5
14E8
  8
0
 10
0.0
 20
0.0
 30
0.0
 70
   128
 71
    49
 72
   -50
 73
   -34
  0
VERTEX
  5
14E9
  8
0
 10
0.0
 20
0.0
 30
0.0
 70
   128
 71
    50
 72
   -51
 73
   -34
  0
VERTEX
  5
14EA
  8
0
 10
0.0
 20
0.0
 30
0.0
 70
   128
 71
    -1
 72
   -34
 73
   -51
  0
VERTEX
  5
14EB
  8
0
 10
0.0
 20
0.0
 30
0.0
 70
   128
 71
    51
 72
   -52
 73
    -1
  0
VERTEX
  5
14EC
  8
0
 10
0.0
 20
0.0
 30
0.0
 70
   128
 71
   -52
 72
    36
 73
    -1
  0
VERTEX
  5
14ED
  8
0
 10
0.0
 20
0.0
 30
0.0
 70
   128
 71
    52
 72
   -45
 73
   -36
  0
SEQEND
  5
1895
  8
0
  0
POLYLINE
  5
14EE
  8
0
 66
     1
 10
0.0
 20
0.0
 30
0.0
 70
    64
 71
     6
 72
     4
  0
VERTEX
  5
14EF
  8
0
 10
-375.5000000000001
 20
41.00000000000004
 30
-215.0
 70
   192
  0
VERTEX
  5
14F0
  8
0
 10
-147.5000000000001
 20
41.00000000000004
 30
-215.0
 70
   192
  0
VERTEX
  5
14F1
  8
0
 10
-147.5000000000001
 20
41.00000000000006
 30
-173.4201502073126
 70
   192
  0
VERTEX
  5
14F2
  8
0
 10
-221.5356404341945
 20
41.00000000000004
 30
-203.1024641971574
 70
   192
  0
VERTEX
  5
14F3
  8
0
 10
-301.2994544831677
 20
41.00000000000004
 30
-203.3255934284729
 70
   192
  0
VERTEX
  5
14F4
  8
0
 10
-375.5
 20
41.00000000000004
 30
-174.057951512911
 70
   192
  0
VERTEX
  5
14F5
  8
0
 10
0.0
 20
0.0
 30
0.0
 70
   128
 71
     2
 72
     3
 73
    -4
  0
VERTEX
  5
14F6
  8
0
 10
0.0
 20
0.0
 30
0.0
 70
   128
 71
    -5
 72
     1
 73
    -2
  0
VERTEX
  5
14F7
  8
0
 10
0.0
 20
0.0
 30
0.0
 70
   128
 71
     4
 72
    -5
 73
    -2
  0
VERTEX
  5
14F8
  8
0
 10
0.0
 20
0.0
 30
0.0
 70
   128
 71
     5
 72
     6
 73
    -1
  0
SEQEND
  5
1896
  8
0
  0
POLYLINE
  5
14F9
  8
0
 66
     1
 10
0.0
 20
0.0
 30
0.0
 70
    64
 71
    42
 72
    43
  0
VERTEX
  5
14FA
  8
0
 10
-154.8890366118723
 20
-26.82035805323727
 30
-116.4500796279642
 70
   192
  0
VERTEX
  5
14FB
  8
0
 10
-145.717248346479
 20
12.1194232129601
 30
-151.763311033243
 70
   192
  0
VERTEX
  5
14FC
  8
0
 10
-144.1895416034166
 20
-12.62942602465148
 30
-125.4679659025373
 70
   192
  0
VERTEX
  5
14FD
  8
0
 10
-142.9620834398407
 20
-32.51424827458021
 30
-95.31217387899457
 70
   192
  0
VERTEX
  5
14FE
  8
0
 10
-140.0986658378413
 20
-38.15832027001537
 30
-80.64886063816421
 70
   192
  0
VERTEX
  5
14FF
  8
0
 10
-250.75
 20
-90.00000000000028
 30
-14.48557158514977
 70
   192
  0
VERTEX
  5
1500
  8
0
 10
-262.0
 20
-90.00000000000028
 30
-17.4999999999999
 70
   192
  0
VERTEX
  5
1501
  8
0
 10
-262.0
 20
-57.45560139427567
 30
-116.4500796279642
 70
   192
  0
VERTEX
  5
1502
  8
0
 10
-242.5144284148502
 20
-90.00000000000028
 30
-6.249999999999908
 70
   192
  0
VERTEX
  5
1503
  8
0
 10
-162.4606449473009
 20
-69.07419109253343
 30
5.000000000000076
 70
   192
  0
VERTEX
  5
1504
  8
0
 10
-239.5000000000002
 20
-90.00000000000028
 30
5.000000000000067
 70
   192
  0
VERTEX
  5
1505
  8
0
 10
-281.4855715851498
 20
-90.00000000000028
 30
-6.249999999999929
 70
   192
  0
VERTEX
  5
1506
  8
0
 10
-284.4999999999999
 20
-90.00000000000028
 30
5.00000000000006
 70
   192
  0
VERTEX
  5
1507
  8
0
 10
-361.5393550526992
 20
-69.07419109253331
 30
5.000000000000064
 70
   192
  0
VERTEX
  5
1508
  8
0
 10
-369.1109633881277
 20
-26.82035805323724
 30
-116.4500796279642
 70
   192
  0
VERTEX
  5
1509
  8
0
 10
-273.25
 20
-90.00000000000028
 30
-14.48557158514978
 70
   192
  0
VERTEX
  5
150A
  8
0
 10
-378.8067351197829
 20
-12.5691089404809
 30
-126.4397426926407
 70
   192
  0
VERTEX
  5
150B
  8
0
 10
-377.2792154082305
 20
12.17671038666745
 30
-152.5511044366192
 70
   192
  0
VERTEX
  5
150C
  8
0
 10
-382.8792252257655
 20
-38.13948704440663
 30
-82.12504295478949
 70
   192
  0
VERTEX
  5
150D
  8
0
 10
-380.0379165601593
 20
-32.5142482745802
 30
-96.48698468990969
 70
   192
  0
VERTEX
  5
150E
  8
0
 10
-427.2067623398989
 20
-23.67878025019465
 30
5.000000000000064
 70
   192
  0
VERTEX
  5
150F
  8
0
 10
-474.0
 20
41.00000000000003
 30
5.000000000000064
 70
   192
  0
VERTEX
  5
1510
  8
0
 10
-465.3714335054986
 20
41.00000000000004
 30
-54.86701958439679
 70
   192
  0
VERTEX
  5
1511
  8
0
 10
-440.1881128875609
 20
41.00000000000004
 30
-109.8607697413258
 70
   192
  0
VERTEX
  5
1512
  8
0
 10
-389.3851404413314
 20
-39.87893058139066
 30
-68.04147873199035
 70
   192
  0
VERTEX
  5
1513
  8
0
 10
-395.9620834398409
 20
-32.5142482745803
 30
-74.28882650014575
 70
   192
  0
VERTEX
  5
1514
  8
0
 10
-397.1311001955782
 20
-13.57617683163534
 30
-106.0909731046326
 70
   192
  0
VERTEX
  5
1515
  8
0
 10
-133.5881627629497
 20
-39.87407596610235
 30
-66.23360902992414
 70
   192
  0
VERTEX
  5
1516
  8
0
 10
-127.0379165601593
 20
-32.51424827458016
 30
-72.57444064181581
 70
   192
  0
VERTEX
  5
1517
  8
0
 10
-96.79323766010108
 20
-23.67878025019465
 30
5.000000000000084
 70
   192
  0
VERTEX
  5
1518
  8
0
 10
-125.8760833819456
 20
-13.69255078751797
 30
-104.70392204915
 70
   192
  0
VERTEX
  5
1519
  8
0
 10
-124.3429263738703
 20
11.1445927433022
 30
-132.4289190545735
 70
   192
  0
VERTEX
  5
151A
  8
0
 10
-83.33505965996164
 20
41.00000000000004
 30
-109.1176546082618
 70
   192
  0
VERTEX
  5
151B
  8
0
 10
-58.50433990857678
 20
41.00000000000004
 30
-54.44338755451215
 70
   192
  0
VERTEX
  5
151C
  8
0
 10
-50.0
 20
41.00000000000004
 30
5.000000000000051
 70
   192
  0
VERTEX
  5
151D
  8
0
 10
-122.5000000000001
 20
40.99999999999997
 30
-154.6363053944811
 70
   192
  0
VERTEX
  5
151E
  8
0
 10
-221.5356404341945
 20
41.00000000000004
 30
-203.1024641971574
 70
   192
  0
VERTEX
  5
151F
  8
0
 10
-147.5000000000001
 20
41.00000000000004
 30
-173.4201502073126
 70
   192
  0
VERTEX
  5
1520
  8
0
 10
-375.5000000000001
 20
41.00000000000009
 30
-174.057951512911
 70
   192
  0
VERTEX
  5
1521
  8
0
 10
-301.2994544831677
 20
41.00000000000004
 30
-203.3255934284729
 70
   192
  0
VERTEX
  5
1522
  8
0
 10
-400.5
 20
41.00000000000004
 30
-155.5046728291733
 70
   192
  0
VERTEX
  5
1523
  8
0
 10
-398.6638390363717
 20
11.2541923892198
 30
-133.5226546937824
 70
   192
  0
VERTEX
  5
1524
  8
0
 10
0.0
 20
0.0
 30
0.0
 70
   128
 71
     1
 72
     2
 73
     3
  0
VERTEX
  5
1525
  8
0
 10
0.0
 20
0.0
 30
0.0
 70
   128
 71
     1
 72
     4
 73
     5
  0
VERTEX
  5
1526
  8
0
 10
0.0
 20
0.0
 30
0.0
 70
   128
 71
     6
 72
     7
 73
     8
  0
VERTEX
  5
1527
  8
0
 10
0.0
 20
0.0
 30
0.0
 70
   128
 71
     8
 72
     9
 73
     6
  0
VERTEX
  5
1528
  8
0
 10
0.0
 20
0.0
 30
0.0
 70
   128
 71
    10
 72
    11
 73
     9
  0
VERTEX
  5
1529
  8
0
 10
0.0
 20
0.0
 30
0.0
 70
   128
 71
    12
 72
    13
 73
    14
  0
VERTEX
  5
152A
  8
0
 10
0.0
 20
0.0
 30
0.0
 70
   128
 71
    14
 72
    15
 73
     8
  0
VERTEX
  5
152B
  8
0
 10
0.0
 20
0.0
 30
0.0
 70
   128
 71
    14
 72
     8
 73
    16
  0
VERTEX
  5
152C
  8
0
 10
0.0
 20
0.0
 30
0.0
 70
   128
 71
    14
 72
    16
 73
    12
  0
VERTEX
  5
152D
  8
0
 10
0.0
 20
0.0
 30
0.0
 70
   128
 71
     8
 72
     7
 73
    16
  0
VERTEX
  5
152E
  8
0
 10
0.0
 20
0.0
 30
0.0
 70
   128
 71
    17
 72
    18
 73
    15
  0
VERTEX
  5
152F
  8
0
 10
0.0
 20
0.0
 30
0.0
 70
   128
 71
    15
 72
    19
 73
    20
  0
VERTEX
  5
1530
  8
0
 10
0.0
 20
0.0
 30
0.0
 70
   128
 71
    21
 72
    22
 73
    23
  0
VERTEX
  5
1531
  8
0
 10
0.0
 20
0.0
 30
0.0
 70
   128
 71
    21
 72
    23
 73
    24
  0
VERTEX
  5
1532
  8
0
 10
0.0
 20
0.0
 30
0.0
 70
   128
 71
    19
 72
    15
 73
    14
  0
VERTEX
  5
1533
  8
0
 10
0.0
 20
0.0
 30
0.0
 70
   128
 71
    14
 72
    25
 73
    19
  0
VERTEX
  5
1534
  8
0
 10
0.0
 20
0.0
 30
0.0
 70
   128
 71
    14
 72
    21
 73
    26
  0
VERTEX
  5
1535
  8
0
 10
0.0
 20
0.0
 30
0.0
 70
   128
 71
    14
 72
    26
 73
    25
  0
VERTEX
  5
1536
  8
0
 10
0.0
 20
0.0
 30
0.0
 70
   128
 71
    21
 72
    27
 73
    26
  0
VERTEX
  5
1537
  8
0
 10
0.0
 20
0.0
 30
0.0
 70
   128
 71
    28
 72
    29
 73
    30
  0
VERTEX
  5
1538
  8
0
 10
0.0
 20
0.0
 30
0.0
 70
   128
 71
    28
 72
    30
 73
    10
  0
VERTEX
  5
1539
  8
0
 10
0.0
 20
0.0
 30
0.0
 70
   128
 71
    28
 72
    10
 73
     9
  0
VERTEX
  5
153A
  8
0
 10
0.0
 20
0.0
 30
0.0
 70
   128
 71
     9
 72
     5
 73
    28
  0
VERTEX
  5
153B
  8
0
 10
0.0
 20
0.0
 30
0.0
 70
   128
 71
     9
 72
     8
 73
     1
  0
VERTEX
  5
153C
  8
0
 10
0.0
 20
0.0
 30
0.0
 70
   128
 71
     9
 72
     1
 73
     5
  0
VERTEX
  5
153D
  8
0
 10
0.0
 20
0.0
 30
0.0
 70
   128
 71
    29
 72
    31
 73
   -32
  0
VERTEX
  5
153E
  8
0
 10
0.0
 20
0.0
 30
0.0
 70
   128
 71
    29
 72
    33
 73
    34
  0
VERTEX
  5
153F
  8
0
 10
0.0
 20
0.0
 30
0.0
 70
   128
 71
    29
 72
    34
 73
    35
  0
VERTEX
  5
1540
  8
0
 10
0.0
 20
0.0
 30
0.0
 70
   128
 71
    29
 72
    35
 73
    30
  0
VERTEX
  5
1541
  8
0
 10
0.0
 20
0.0
 30
0.0
 70
   128
 71
   -29
 72
    32
 73
    36
  0
VERTEX
  5
1542
  8
0
 10
0.0
 20
0.0
 30
0.0
 70
   128
 71
    29
 72
    36
 73
    33
  0
VERTEX
  5
1543
  8
0
 10
0.0
 20
0.0
 30
0.0
 70
   128
 71
    37
 72
    38
 73
     2
  0
VERTEX
  5
1544
  8
0
 10
0.0
 20
0.0
 30
0.0
 70
   128
 71
     4
 72
     1
 73
     3
  0
VERTEX
  5
1545
  8
0
 10
0.0
 20
0.0
 30
0.0
 70
   128
 71
    18
 72
    39
 73
    40
  0
VERTEX
  5
1546
  8
0
 10
0.0
 20
0.0
 30
0.0
 70
   128
 71
     8
 72
    15
 73
    18
  0
VERTEX
  5
1547
  8
0
 10
0.0
 20
0.0
 30
0.0
 70
   128
 71
     8
 72
    18
 73
    40
  0
VERTEX
  5
1548
  8
0
 10
0.0
 20
0.0
 30
0.0
 70
   128
 71
    40
 72
    37
 73
     2
  0
VERTEX
  5
1549
  8
0
 10
0.0
 20
0.0
 30
0.0
 70
   128
 71
    40
 72
     2
 73
     1
  0
VERTEX
  5
154A
  8
0
 10
0.0
 20
0.0
 30
0.0
 70
   128
 71
    40
 72
     1
 73
     8
  0
VERTEX
  5
154B
  8
0
 10
0.0
 20
0.0
 30
0.0
 70
   128
 71
    17
 72
    15
 73
    20
  0
VERTEX
  5
154C
  8
0
 10
0.0
 20
0.0
 30
0.0
 70
   128
 71
    21
 72
    24
 73
    41
  0
VERTEX
  5
154D
  8
0
 10
0.0
 20
0.0
 30
0.0
 70
   128
 71
    21
 72
    41
 73
    42
  0
VERTEX
  5
154E
  8
0
 10
0.0
 20
0.0
 30
0.0
 70
   128
 71
    21
 72
    42
 73
    27
  0
SEQEND
  5
1897
  8
0
  0
POLYLINE
  5
154F
  8
0
 66
     1
 10
0.0
 20
0.0
 30
0.0
 70
    64
 71
     4
 72
     2
  0
VERTEX
  5
1550
  8
0
 10
-410.0000000000001
 20
-60.00000000000002
 30
-235.0
 70
   192
  0
VERTEX
  5
1551
  8
0
 10
410.0
 20
-60.00000000000002
 30
-235.0
 70
   192
  0
VERTEX
  5
1552
  8
0
 10
410.0
 20
-60.00000000000002
 30
-215.0
 70
   192
  0
VERTEX
  5
1553
  8
0
 10
-410.0000000000001
 20
-60.00000000000002
 30
-215.0
 70
   192
  0
VERTEX
  5
1554
  8
0
 10
0.0
 20
0.0
 30
0.0
 70
   128
 71
     3
 72
     4
 73
    -1
  0
VERTEX
  5
1555
  8
0
 10
0.0
 20
0.0
 30
0.0
 70
   128
 71
     2
 72
    -3
 73
     1
  0
SEQEND
  5
1898
  8
0
  0
POLYLINE
  5
1556
  8
0
 66
     1
 10
0.0
 20
0.0
 30
0.0
 70
    64
 71
    40
 72
    46
  0
VERTEX
  5
1557
  8
0
 10
-497.5
 20
60.00000000000004
 30
232.5
 70
   192
  0
VERTEX
  5
1558
  8
0
 10
497.5
 20
60.00000000000004
 30
232.5
 70
   192
  0
VERTEX
  5
1559
  8
0
 10
497.5000000000001
 20
59.99999999999998
 30
-220.0
 70
   192
  0
VERTEX
  5
155A
  8
0
 10
-497.5
 20
59.99999999999998
 30
-220.0
 70
   192
  0
VERTEX
  5
155B
  8
0
 10
262.0
 20
60.00000000000003
 30
195.0
 70
   192
  0
VERTEX
  5
155C
  8
0
 10
150.3208020644301
 20
60.00000000000002
 30
158.71322893124
 70
   192
  0
VERTEX
  5
155D
  8
0
 10
81.29926190392075
 20
60.00000000000001
 30
63.71322893124
 70
   192
  0
VERTEX
  5
155E
  8
0
 10
81.29926190392075
 20
60.0
 30
-53.71322893124005
 70
   192
  0
VERTEX
  5
155F
  8
0
 10
150.3208020644301
 20
59.99999999999999
 30
-148.7132289312401
 70
   192
  0
VERTEX
  5
1560
  8
0
 10
262.0
 20
59.99999999999999
 30
-185.0000000000001
 70
   192
  0
VERTEX
  5
1561
  8
0
 10
373.6791979355699
 20
59.99999999999999
 30
-148.7132289312401
 70
   192
  0
VERTEX
  5
1562
  8
0
 10
442.7007380960792
 20
60.0
 30
-53.7132289312401
 70
   192
  0
VERTEX
  5
1563
  8
0
 10
442.7007380960792
 20
60.00000000000001
 30
63.71322893123997
 70
   192
  0
VERTEX
  5
1564
  8
0
 10
373.67919793557
 20
60.00000000000002
 30
158.71322893124
 70
   192
  0
VERTEX
  5
1565
  8
0
 10
-89.99999999999953
 20
59.99999999999999
 30
-183.9999999999999
 70
   192
  0
VERTEX
  5
1566
  8
0
 10
-77.97918471982823
 20
59.99999999999999
 30
-179.0208152801712
 70
   192
  0
VERTEX
  5
1567
  8
0
 10
-72.99999999999955
 20
59.99999999999999
 30
-166.9999999999999
 70
   192
  0
VERTEX
  5
1568
  8
0
 10
-77.97918471982823
 20
59.99999999999999
 30
-154.9791847198287
 70
   192
  0
VERTEX
  5
1569
  8
0
 10
-89.99999999999953
 20
59.99999999999999
 30
-149.9999999999999
 70
   192
  0
VERTEX
  5
156A
  8
0
 10
-102.0208152801708
 20
59.99999999999999
 30
-154.9791847198287
 70
   192
  0
VERTEX
  5
156B
  8
0
 10
-106.9999999999995
 20
59.99999999999999
 30
-166.9999999999999
 70
   192
  0
VERTEX
  5
156C
  8
0
 10
-102.0208152801708
 20
59.99999999999999
 30
-179.0208152801712
 70
   192
  0
VERTEX
  5
156D
  8
0
 10
-262.0
 20
59.99999999999999
 30
-185.0000000000001
 70
   192
  0
VERTEX
  5
156E
  8
0
 10
-150.3208020644301
 20
59.99999999999999
 30
-148.7132289312401
 70
   192
  0
VERTEX
  5
156F
  8
0
 10
-81.29926190392075
 20
60.0
 30
-53.71322893124005
 70
   192
  0
VERTEX
  5
1570
  8
0
 10
-81.29926190392075
 20
60.00000000000001
 30
63.71322893124
 70
   192
  0
VERTEX
  5
1571
  8
0
 10
-150.3208020644301
 20
60.00000000000002
 30
158.71322893124
 70
   192
  0
VERTEX
  5
1572
  8
0
 10
-262.0
 20
60.00000000000003
 30
195.0
 70
   192
  0
VERTEX
  5
1573
  8
0
 10
-373.67919793557
 20
60.00000000000002
 30
158.71322893124
 70
   192
  0
VERTEX
  5
1574
  8
0
 10
-442.7007380960792
 20
60.00000000000001
 30
63.71322893123997
 70
   192
  0
VERTEX
  5
1575
  8
0
 10
-442.7007380960792
 20
60.0
 30
-53.7132289312401
 70
   192
  0
VERTEX
  5
1576
  8
0
 10
-373.6791979355699
 20
59.99999999999999
 30
-148.7132289312401
 70
   192
  0
VERTEX
  5
1577
  8
0
 10
89.99999999999953
 20
59.99999999999999
 30
-149.9999999999999
 70
   192
  0
VERTEX
  5
1578
  8
0
 10
77.97918471982823
 20
59.99999999999999
 30
-154.9791847198287
 70
   192
  0
VERTEX
  5
1579
  8
0
 10
72.99999999999955
 20
59.99999999999999
 30
-166.9999999999999
 70
   192
  0
VERTEX
  5
157A
  8
0
 10
77.97918471982823
 20
59.99999999999999
 30
-179.0208152801712
 70
   192
  0
VERTEX
  5
157B
  8
0
 10
89.99999999999953
 20
59.99999999999999
 30
-183.9999999999999
 70
   192
  0
VERTEX
  5
157C
  8
0
 10
102.0208152801708
 20
59.99999999999999
 30
-179.0208152801712
 70
   192
  0
VERTEX
  5
157D
  8
0
 10
106.9999999999995
 20
59.99999999999999
 30
-166.9999999999999
 70
   192
  0
VERTEX
  5
157E
  8
0
 10
102.0208152801708
 20
59.99999999999999
 30
-154.9791847198287
 70
   192
  0
VERTEX
  5
157F
  8
0
 10
0.0
 20
0.0
 30
0.0
 70
   128
 71
     1
 72
    -2
 73
    -5
  0
VERTEX
  5
1580
  8
0
 10
0.0
 20
0.0
 30
0.0
 70
   128
 71
     5
 72
    -6
 73
    -1
  0
VERTEX
  5
1581
  8
0
 10
0.0
 20
0.0
 30
0.0
 70
   128
 71
    -7
 72
    26
 73
   -27
  0
VERTEX
  5
1582
  8
0
 10
0.0
 20
0.0
 30
0.0
 70
   128
 71
     6
 72
    -7
 73
   -27
  0
VERTEX
  5
1583
  8
0
 10
0.0
 20
0.0
 30
0.0
 70
   128
 71
    27
 72
   -28
 73
    -6
  0
VERTEX
  5
1584
  8
0
 10
0.0
 20
0.0
 30
0.0
 70
   128
 71
   -28
 72
    -1
 73
    -6
  0
VERTEX
  5
1585
  8
0
 10
0.0
 20
0.0
 30
0.0
 70
   128
 71
    28
 72
   -29
 73
    -1
  0
VERTEX
  5
1586
  8
0
 10
0.0
 20
0.0
 30
0.0
 70
   128
 71
    29
 72
   -30
 73
    -1
  0
VERTEX
  5
1587
  8
0
 10
0.0
 20
0.0
 30
0.0
 70
   128
 71
   -31
 72
     4
 73
    -1
  0
VERTEX
  5
1588
  8
0
 10
0.0
 20
0.0
 30
0.0
 70
   128
 71
    30
 72
   -31
 73
    -1
  0
VERTEX
  5
1589
  8
0
 10
0.0
 20
0.0
 30
0.0
 70
   128
 71
    31
 72
   -32
 73
    -4
  0
VERTEX
  5
158A
  8
0
 10
0.0
 20
0.0
 30
0.0
 70
   128
 71
    32
 72
   -23
 73
    -4
  0
VERTEX
  5
158B
  8
0
 10
0.0
 20
0.0
 30
0.0
 70
   128
 71
   -23
 72
   -15
 73
    -4
  0
VERTEX
  5
158C
  8
0
 10
0.0
 20
0.0
 30
0.0
 70
   128
 71
    -8
 72
    25
 73
   -26
  0
VERTEX
  5
158D
  8
0
 10
0.0
 20
0.0
 30
0.0
 70
   128
 71
     7
 72
    -8
 73
   -26
  0
VERTEX
  5
158E
  8
0
 10
0.0
 20
0.0
 30
0.0
 70
   128
 71
     3
 72
    -4
 73
   -15
  0
VERTEX
  5
158F
  8
0
 10
0.0
 20
0.0
 30
0.0
 70
   128
 71
    15
 72
   -16
 73
    -3
  0
VERTEX
  5
1590
  8
0
 10
0.0
 20
0.0
 30
0.0
 70
   128
 71
   -10
 72
    38
 73
   -39
  0
VERTEX
  5
1591
  8
0
 10
0.0
 20
0.0
 30
0.0
 70
   128
 71
     9
 72
   -10
 73
   -39
  0
VERTEX
  5
1592
  8
0
 10
0.0
 20
0.0
 30
0.0
 70
   128
 71
    39
 72
   -40
 73
    -9
  0
VERTEX
  5
1593
  8
0
 10
0.0
 20
0.0
 30
0.0
 70
   128
 71
    40
 72
   -33
 73
    -9
  0
VERTEX
  5
1594
  8
0
 10
0.0
 20
0.0
 30
0.0
 70
   128
 71
   -17
 72
    35
 73
   -36
  0
VERTEX
  5
1595
  8
0
 10
0.0
 20
0.0
 30
0.0
 70
   128
 71
    16
 72
   -17
 73
   -36
  0
VERTEX
  5
1596
  8
0
 10
0.0
 20
0.0
 30
0.0
 70
   128
 71
    36
 72
   -37
 73
   -16
  0
VERTEX
  5
1597
  8
0
 10
0.0
 20
0.0
 30
0.0
 70
   128
 71
    -3
 72
   -16
 73
   -37
  0
VERTEX
  5
1598
  8
0
 10
0.0
 20
0.0
 30
0.0
 70
   128
 71
   -37
 72
   -10
 73
    -3
  0
VERTEX
  5
1599
  8
0
 10
0.0
 20
0.0
 30
0.0
 70
   128
 71
    37
 72
   -38
 73
   -10
  0
VERTEX
  5
159A
  8
0
 10
0.0
 20
0.0
 30
0.0
 70
   128
 71
    10
 72
   -11
 73
    -3
  0
VERTEX
  5
159B
  8
0
 10
0.0
 20
0.0
 30
0.0
 70
   128
 71
    11
 72
   -12
 73
    -3
  0
VERTEX
  5
159C
  8
0
 10
0.0
 20
0.0
 30
0.0
 70
   128
 71
   -13
 72
     2
 73
    -3
  0
VERTEX
  5
159D
  8
0
 10
0.0
 20
0.0
 30
0.0
 70
   128
 71
    12
 72
   -13
 73
    -3
  0
VERTEX
  5
159E
  8
0
 10
0.0
 20
0.0
 30
0.0
 70
   128
 71
    13
 72
   -14
 73
    -2
  0
VERTEX
  5
159F
  8
0
 10
0.0
 20
0.0
 30
0.0
 70
   128
 71
    14
 72
    -5
 73
    -2
  0
VERTEX
  5
15A0
  8
0
 10
0.0
 20
0.0
 30
0.0
 70
   128
 71
     8
 72
    -9
 73
   -33
  0
VERTEX
  5
15A1
  8
0
 10
0.0
 20
0.0
 30
0.0
 70
   128
 71
    33
 72
   -34
 73
    -8
  0
VERTEX
  5
15A2
  8
0
 10
0.0
 20
0.0
 30
0.0
 70
   128
 71
    17
 72
   -18
 73
    -8
  0
VERTEX
  5
15A3
  8
0
 10
0.0
 20
0.0
 30
0.0
 70
   128
 71
   -35
 72
   -17
 73
    -8
  0
VERTEX
  5
15A4
  8
0
 10
0.0
 20
0.0
 30
0.0
 70
   128
 71
    34
 72
   -35
 73
    -8
  0
VERTEX
  5
15A5
  8
0
 10
0.0
 20
0.0
 30
0.0
 70
   128
 71
    18
 72
   -19
 73
    -8
  0
VERTEX
  5
15A6
  8
0
 10
0.0
 20
0.0
 30
0.0
 70
   128
 71
    24
 72
   -25
 73
    -8
  0
VERTEX
  5
15A7
  8
0
 10
0.0
 20
0.0
 30
0.0
 70
   128
 71
   -19
 72
   -24
 73
    -8
  0
VERTEX
  5
15A8
  8
0
 10
0.0
 20
0.0
 30
0.0
 70
   128
 71
    19
 72
   -20
 73
   -24
  0
VERTEX
  5
15A9
  8
0
 10
0.0
 20
0.0
 30
0.0
 70
   128
 71
    20
 72
   -21
 73
   -24
  0
VERTEX
  5
15AA
  8
0
 10
0.0
 20
0.0
 30
0.0
 70
   128
 71
   -22
 72
    23
 73
   -24
  0
VERTEX
  5
15AB
  8
0
 10
0.0
 20
0.0
 30
0.0
 70
   128
 71
    21
 72
   -22
 73
   -24
  0
VERTEX
  5
15AC
  8
0
 10
0.0
 20
0.0
 30
0.0
 70
   128
 71
    22
 72
   -15
 73
   -23
  0
SEQEND
  5
1899
  8
0
  0
POLYLINE
  5
15AD
  8
0
 66
     1
 10
0.0
 20
0.0
 30
0.0
 70
    64
 71
     4
 72
     2
  0
VERTEX
  5
15AE
  8
0
 10
-497.5
 20
59.99999999999998
 30
-220.0
 70
   192
  0
VERTEX
  5
15AF
  8
0
 10
497.5
 20
59.99999999999998
 30
-220.0
 70
   192
  0
VERTEX
  5
15B0
  8
0
 10
497.5000000000001
 20
62.99999999999997
 30
-235.0
 70
   192
  0
VERTEX
  5
15B1
  8
0
 10
-497.5
 20
62.99999999999997
 30
-235.0
 70
   192
  0
VERTEX
  5
15B2
  8
0
 10
0.0
 20
0.0
 30
0.0
 70
   128
 71
     3
 72
     4
 73
    -1
  0
VERTEX
  5
15B3
  8
0
 10
0.0
 20
0.0
 30
0.0
 70
   128
 71
     2
 72
    -3
 73
     1
  0
SEQEND
  5
189A
  8
0
  0
POLYLINE
  5
15B4
  8
0
 66
     1
 10
0.0
 20
0.0
 30
0.0
 70
    64
 71
     4
 72
     2
  0
VERTEX
  5
15B5
  8
0
 10
500.0
 20
41.00000000000004
 30
235.0
 70
   192
  0
VERTEX
  5
15B6
  8
0
 10
500.0
 20
57.50000000000004
 30
235.0
 70
   192
  0
VERTEX
  5
15B7
  8
0
 10
-500.0
 20
57.50000000000004
 30
235.0
 70
   192
  0
VERTEX
  5
15B8
  8
0
 10
-500.0
 20
41.00000000000004
 30
235.0
 70
   192
  0
VERTEX
  5
15B9
  8
0
 10
0.0
 20
0.0
 30
0.0
 70
   128
 71
     3
 72
     4
 73
    -1
  0
VERTEX
  5
15BA
  8
0
 10
0.0
 20
0.0
 30
0.0
 70
   128
 71
     2
 72
    -3
 73
     1
  0
SEQEND
  5
189B
  8
0
  0
POLYLINE
  5
15BB
  8
0
 66
     1
 10
0.0
 20
0.0
 30
0.0
 70
    64
 71
     5
 72
     3
  0
VERTEX
  5
15BC
  8
0
 10
-500.0
 20
57.50000000000004
 30
235.0
 70
   192
  0
VERTEX
  5
15BD
  8
0
 10
-500.0
 20
41.00000000000004
 30
235.0
 70
   192
  0
VERTEX
  5
15BE
  8
0
 10
-500.0
 20
40.99999999999998
 30
-235.0
 70
   192
  0
VERTEX
  5
15BF
  8
0
 10
-500.0
 20
60.45049024320359
 30
-235.0
 70
   192
  0
VERTEX
  5
15C0
  8
0
 10
-500.0
 20
57.49999999999997
 30
-220.2475487839819
 70
   192
  0
VERTEX
  5
15C1
  8
0
 10
0.0
 20
0.0
 30
0.0
 70
   128
 71
     5
 72
     4
 73
    -3
  0
VERTEX
  5
15C2
  8
0
 10
0.0
 20
0.0
 30
0.0
 70
   128
 71
     3
 72
     2
 73
    -1
  0
VERTEX
  5
15C3
  8
0
 10
0.0
 20
0.0
 30
0.0
 70
   128
 71
    -3
 72
     1
 73
    -5
  0
SEQEND
  5
189C
  8
0
  0
POLYLINE
  5
15C4
  8
0
 66
     1
 10
0.0
 20
0.0
 30
0.0
 70
    64
 71
     5
 72
     3
  0
VERTEX
  5
15C5
  8
0
 10
500.0
 20
40.99999999999998
 30
-235.0000000000002
 70
   192
  0
VERTEX
  5
15C6
  8
0
 10
500.0
 20
60.45049024320358
 30
-235.0
 70
   192
  0
VERTEX
  5
15C7
  8
0
 10
500.0
 20
57.49999999999997
 30
-220.2475487839819
 70
   192
  0
VERTEX
  5
15C8
  8
0
 10
500.0
 20
57.50000000000003
 30
235.0
 70
   192
  0
VERTEX
  5
15C9
  8
0
 10
500.0
 20
41.00000000000004
 30
235.0
 70
   192
  0
VERTEX
  5
15CA
  8
0
 10
0.0
 20
0.0
 30
0.0
 70
   128
 71
     1
 72
     2
 73
    -3
  0
VERTEX
  5
15CB
  8
0
 10
0.0
 20
0.0
 30
0.0
 70
   128
 71
     4
 72
     5
 73
    -1
  0
VERTEX
  5
15CC
  8
0
 10
0.0
 20
0.0
 30
0.0
 70
   128
 71
     3
 72
    -4
 73
    -1
  0
SEQEND
  5
189D
  8
0
  0
POLYLINE
  5
15CD
  8
0
 66
     1
 10
0.0
 20
0.0
 30
0.0
 70
    64
 71
     4
 72
     2
  0
VERTEX
  5
15CE
  8
0
 10
460.0
 20
30.99999999999998
 30
-215.0
 70
   192
  0
VERTEX
  5
15CF
  8
0
 10
460.0
 20
30.99999999999998
 30
-235.0000000000003
 70
   192
  0
VERTEX
  5
15D0
  8
0
 10
459.9999999999999
 20
-10.00000000000002
 30
-235.0000000000006
 70
   192
  0
VERTEX
  5
15D1
  8
0
 10
459.9999999999999
 20
-10.00000000000001
 30
-215.0
 70
   192
  0
VERTEX
  5
15D2
  8
0
 10
0.0
 20
0.0
 30
0.0
 70
   128
 71
     1
 72
     4
 73
    -3
  0
VERTEX
  5
15D3
  8
0
 10
0.0
 20
0.0
 30
0.0
 70
   128
 71
    -1
 72
     3
 73
     2
  0
SEQEND
  5
189E
  8
0
  0
POLYLINE
  5
15D4
  8
0
 66
     1
 10
0.0
 20
0.0
 30
0.0
 70
    64
 71
     8
 72
     6
  0
VERTEX
  5
15D5
  8
0
 10
453.3012701892219
 20
-35.00000000000004
 30
-235.0000000000009
 70
   192
  0
VERTEX
  5
15D6
  8
0
 10
453.3012701892219
 20
-35.00000000000001
 30
-215.0
 70
   192
  0
VERTEX
  5
15D7
  8
0
 10
435.0
 20
-53.30127018922193
 30
-215.0
 70
   192
  0
VERTEX
  5
15D8
  8
0
 10
435.0
 20
-53.30127018922195
 30
-235.000000000001
 70
   192
  0
VERTEX
  5
15D9
  8
0
 10
460.0
 20
-10.00000000000002
 30
-235.0000000000006
 70
   192
  0
VERTEX
  5
15DA
  8
0
 10
459.9999999999999
 20
-10.00000000000002
 30
-215.0
 70
   192
  0
VERTEX
  5
15DB
  8
0
 10
410.0
 20
-60.0
 30
-215.0
 70
   192
  0
VERTEX
  5
15DC
  8
0
 10
410.0
 20
-60.00000000000002
 30
-235.0000000000011
 70
   192
  0
VERTEX
  5
15DD
  8
0
 10
0.0
 20
0.0
 30
0.0
 70
   128
 71
     1
 72
     2
 73
    -3
  0
VERTEX
  5
15DE
  8
0
 10
0.0
 20
0.0
 30
0.0
 70
   128
 71
    -1
 72
     3
 73
     4
  0
VERTEX
  5
15DF
  8
0
 10
0.0
 20
0.0
 30
0.0
 70
   128
 71
     5
 72
     6
 73
    -2
  0
VERTEX
  5
15E0
  8
0
 10
0.0
 20
0.0
 30
0.0
 70
   128
 71
    -5
 72
     2
 73
     1
  0
VERTEX
  5
15E1
  8
0
 10
0.0
 20
0.0
 30
0.0
 70
   128
 71
     4
 72
     3
 73
    -7
  0
VERTEX
  5
15E2
  8
0
 10
0.0
 20
0.0
 30
0.0
 70
   128
 71
    -4
 72
     7
 73
     8
  0
SEQEND
  5
189F
  8
0
  0
POLYLINE
  5
15E3
  8
0
 66
     1
 10
0.0
 20
0.0
 30
0.0
 70
    64
 71
     8
 72
     6
  0
VERTEX
  5
15E4
  8
0
 10
465.0000000000001
 20
39.66025403784437
 30
-215.0
 70
   192
  0
VERTEX
  5
15E5
  8
0
 10
461.3397459621557
 20
35.99999999999999
 30
-215.0
 70
   192
  0
VERTEX
  5
15E6
  8
0
 10
461.3397459621557
 20
35.99999999999999
 30
-235.0000000000002
 70
   192
  0
VERTEX
  5
15E7
  8
0
 10
465.0000000000001
 20
39.66025403784437
 30
-235.0000000000002
 70
   192
  0
VERTEX
  5
15E8
  8
0
 10
460.0000000000001
 20
30.99999999999998
 30
-215.0
 70
   192
  0
VERTEX
  5
15E9
  8
0
 10
460.0
 20
30.99999999999998
 30
-235.0000000000003
 70
   192
  0
VERTEX
  5
15EA
  8
0
 10
470.0000000000001
 20
40.99999999999999
 30
-215.0
 70
   192
  0
VERTEX
  5
15EB
  8
0
 10
470.0000000000001
 20
40.99999999999998
 30
-235.0000000000002
 70
   192
  0
VERTEX
  5
15EC
  8
0
 10
0.0
 20
0.0
 30
0.0
 70
   128
 71
     1
 72
     2
 73
    -3
  0
VERTEX
  5
15ED
  8
0
 10
0.0
 20
0.0
 30
0.0
 70
   128
 71
     4
 72
    -1
 73
     3
  0
VERTEX
  5
15EE
  8
0
 10
0.0
 20
0.0
 30
0.0
 70
   128
 71
     2
 72
     5
 73
    -6
  0
VERTEX
  5
15EF
  8
0
 10
0.0
 20
0.0
 30
0.0
 70
   128
 71
     3
 72
    -2
 73
     6
  0
VERTEX
  5
15F0
  8
0
 10
0.0
 20
0.0
 30
0.0
 70
   128
 71
     7
 72
     1
 73
    -4
  0
VERTEX
  5
15F1
  8
0
 10
0.0
 20
0.0
 30
0.0
 70
   128
 71
     8
 72
    -7
 73
     4
  0
SEQEND
  5
18A0
  8
0
  0
POLYLINE
  5
15F2
  8
0
 66
     1
 10
0.0
 20
0.0
 30
0.0
 70
    64
 71
     8
 72
     6
  0
VERTEX
  5
15F3
  8
0
 10
-435.0000000000001
 20
-53.30127018922193
 30
-235.000000000001
 70
   192
  0
VERTEX
  5
15F4
  8
0
 10
-435.0000000000001
 20
-53.30127018922194
 30
-215.0
 70
   192
  0
VERTEX
  5
15F5
  8
0
 10
-453.301270189222
 20
-35.00000000000003
 30
-215.0
 70
   192
  0
VERTEX
  5
15F6
  8
0
 10
-453.3012701892221
 20
-35.0
 30
-235.0000000000009
 70
   192
  0
VERTEX
  5
15F7
  8
0
 10
-410.0000000000001
 20
-60.00000000000001
 30
-235.0000000000011
 70
   192
  0
VERTEX
  5
15F8
  8
0
 10
-410.0000000000001
 20
-60.00000000000002
 30
-215.0
 70
   192
  0
VERTEX
  5
15F9
  8
0
 10
-460.0000000000001
 20
-10.00000000000002
 30
-215.0
 70
   192
  0
VERTEX
  5
15FA
  8
0
 10
-460.0000000000001
 20
-10.00000000000002
 30
-235.0000000000006
 70
   192
  0
VERTEX
  5
15FB
  8
0
 10
0.0
 20
0.0
 30
0.0
 70
   128
 71
     1
 72
     2
 73
    -3
  0
VERTEX
  5
15FC
  8
0
 10
0.0
 20
0.0
 30
0.0
 70
   128
 71
    -1
 72
     3
 73
     4
  0
VERTEX
  5
15FD
  8
0
 10
0.0
 20
0.0
 30
0.0
 70
   128
 71
     5
 72
     6
 73
    -2
  0
VERTEX
  5
15FE
  8
0
 10
0.0
 20
0.0
 30
0.0
 70
   128
 71
    -5
 72
     2
 73
     1
  0
VERTEX
  5
15FF
  8
0
 10
0.0
 20
0.0
 30
0.0
 70
   128
 71
     4
 72
     3
 73
    -7
  0
VERTEX
  5
1600
  8
0
 10
0.0
 20
0.0
 30
0.0
 70
   128
 71
    -4
 72
     7
 73
     8
  0
SEQEND
  5
18A1
  8
0
  0
POLYLINE
  5
1601
  8
0
 66
     1
 10
0.0
 20
0.0
 30
0.0
 70
    64
 71
     4
 72
     2
  0
VERTEX
  5
1602
  8
0
 10
-460.0000000000001
 20
-10.00000000000002
 30
-215.0
 70
   192
  0
VERTEX
  5
1603
  8
0
 10
-460.0000000000001
 20
-10.00000000000002
 30
-235.0000000000006
 70
   192
  0
VERTEX
  5
1604
  8
0
 10
-460.0000000000001
 20
30.99999999999997
 30
-235.0000000000003
 70
   192
  0
VERTEX
  5
1605
  8
0
 10
-460.0000000000001
 20
30.99999999999998
 30
-215.0
 70
   192
  0
VERTEX
  5
1606
  8
0
 10
0.0
 20
0.0
 30
0.0
 70
   128
 71
     1
 72
     4
 73
    -3
  0
VERTEX
  5
1607
  8
0
 10
0.0
 20
0.0
 30
0.0
 70
   128
 71
    -1
 72
     3
 73
     2
  0
SEQEND
  5
18A2
  8
0
  0
POLYLINE
  5
1608
  8
0
 66
     1
 10
0.0
 20
0.0
 30
0.0
 70
    64
 71
     8
 72
     6
  0
VERTEX
  5
1609
  8
0
 10
-461.3397459621557
 20
35.99999999999995
 30
-215.0
 70
   192
  0
VERTEX
  5
160A
  8
0
 10
-465.0000000000001
 20
39.66025403784432
 30
-215.0
 70
   192
  0
VERTEX
  5
160B
  8
0
 10
-465.0000000000001
 20
39.66025403784432
 30
-235.0000000000002
 70
   192
  0
VERTEX
  5
160C
  8
0
 10
-461.3397459621557
 20
35.99999999999995
 30
-235.0000000000002
 70
   192
  0
VERTEX
  5
160D
  8
0
 10
-470.0000000000001
 20
40.99999999999993
 30
-215.0
 70
   192
  0
VERTEX
  5
160E
  8
0
 10
-470.0000000000001
 20
40.99999999999997
 30
-235.0000000000001
 70
   192
  0
VERTEX
  5
160F
  8
0
 10
-460.0000000000001
 20
30.99999999999997
 30
-215.0
 70
   192
  0
VERTEX
  5
1610
  8
0
 10
-460.0000000000001
 20
30.99999999999997
 30
-235.0000000000003
 70
   192
  0
VERTEX
  5
1611
  8
0
 10
0.0
 20
0.0
 30
0.0
 70
   128
 71
     1
 72
     2
 73
    -3
  0
VERTEX
  5
1612
  8
0
 10
0.0
 20
0.0
 30
0.0
 70
   128
 71
     4
 72
    -1
 73
     3
  0
VERTEX
  5
1613
  8
0
 10
0.0
 20
0.0
 30
0.0
 70
   128
 71
     2
 72
     5
 73
    -6
  0
VERTEX
  5
1614
  8
0
 10
0.0
 20
0.0
 30
0.0
 70
   128
 71
     3
 72
    -2
 73
     6
  0
VERTEX
  5
1615
  8
0
 10
0.0
 20
0.0
 30
0.0
 70
   128
 71
     7
 72
     1
 73
    -4
  0
VERTEX
  5
1616
  8
0
 10
0.0
 20
0.0
 30
0.0
 70
   128
 71
     8
 72
    -7
 73
     4
  0
SEQEND
  5
18A3
  8
0
  0
POLYLINE
  5
1617
  8
0
 66
     1
 10
0.0
 20
0.0
 30
0.0
 70
    64
 71
    13
 72
    11
  0
VERTEX
  5
1618
  8
0
 10
-262.0
 20
41.00000000000004
 30
195.0000000000001
 70
   192
  0
VERTEX
  5
1619
  8
0
 10
-262.0
 20
60.00000000000003
 30
195.0000000000001
 70
   192
  0
VERTEX
  5
161A
  8
0
 10
-150.3208020644301
 20
60.00000000000002
 30
158.71322893124
 70
   192
  0
VERTEX
  5
161B
  8
0
 10
-167.0
 20
41.00000000000004
 30
169.5448267190435
 70
   192
  0
VERTEX
  5
161C
  8
0
 10
-97.45517328095659
 20
41.00000000000004
 30
-89.99999999999994
 70
   192
  0
VERTEX
  5
161D
  8
0
 10
-71.99999999999994
 20
41.00000000000004
 30
5.000000000000075
 70
   192
  0
VERTEX
  5
161E
  8
0
 10
-81.29926190392075
 20
60.0
 30
-53.71322893124005
 70
   192
  0
VERTEX
  5
161F
  8
0
 10
-262.0
 20
59.99999999999999
 30
-185.0000000000001
 70
   192
  0
VERTEX
  5
1620
  8
0
 10
-262.0
 20
41.00000000000004
 30
-185.0000000000001
 70
   192
  0
VERTEX
  5
1621
  8
0
 10
-166.9999999999999
 20
41.00000000000004
 30
-159.5448267190433
 70
   192
  0
VERTEX
  5
1622
  8
0
 10
-150.3208020644301
 20
59.99999999999999
 30
-148.7132289312401
 70
   192
  0
VERTEX
  5
1623
  8
0
 10
-97.45517328095661
 20
41.00000000000004
 30
100.0000000000001
 70
   192
  0
VERTEX
  5
1624
  8
0
 10
-81.29926190392075
 20
60.00000000000001
 30
63.71322893124
 70
   192
  0
VERTEX
  5
1625
  8
0
 10
0.0
 20
0.0
 30
0.0
 70
   128
 71
     1
 72
     2
 73
     3
  0
VERTEX
  5
1626
  8
0
 10
0.0
 20
0.0
 30
0.0
 70
   128
 71
     4
 72
     1
 73
     3
  0
VERTEX
  5
1627
  8
0
 10
0.0
 20
0.0
 30
0.0
 70
   128
 71
     5
 72
     6
 73
     7
  0
VERTEX
  5
1628
  8
0
 10
0.0
 20
0.0
 30
0.0
 70
   128
 71
     8
 72
     9
 73
    10
  0
VERTEX
  5
1629
  8
0
 10
0.0
 20
0.0
 30
0.0
 70
   128
 71
    11
 72
     8
 73
    10
  0
VERTEX
  5
162A
  8
0
 10
0.0
 20
0.0
 30
0.0
 70
   128
 71
     6
 72
    12
 73
    13
  0
VERTEX
  5
162B
  8
0
 10
0.0
 20
0.0
 30
0.0
 70
   128
 71
     7
 72
     6
 73
    13
  0
VERTEX
  5
162C
  8
0
 10
0.0
 20
0.0
 30
0.0
 70
   128
 71
    12
 72
     4
 73
     3
  0
VERTEX
  5
162D
  8
0
 10
0.0
 20
0.0
 30
0.0
 70
   128
 71
    13
 72
    12
 73
     3
  0
VERTEX
  5
162E
  8
0
 10
0.0
 20
0.0
 30
0.0
 70
   128
 71
    10
 72
     5
 73
     7
  0
VERTEX
  5
162F
  8
0
 10
0.0
 20
0.0
 30
0.0
 70
   128
 71
    11
 72
    10
 73
     7
  0
SEQEND
  5
18A4
  8
0
  0
POLYLINE
  5
1630
  8
0
 66
     1
 10
0.0
 20
0.0
 30
0.0
 70
    64
 71
    10
 72
     8
  0
VERTEX
  5
1631
  8
0
 10
-89.99999999999953
 20
41.00000000000004
 30
-149.9999999999999
 70
   192
  0
VERTEX
  5
1632
  8
0
 10
-89.99999999999953
 20
41.00000000000004
 30
-183.9999999999999
 70
   192
  0
VERTEX
  5
1633
  8
0
 10
-89.99999999999953
 20
59.99999999999999
 30
-183.9999999999999
 70
   192
  0
VERTEX
  5
1634
  8
0
 10
-89.99999999999953
 20
59.99999999999999
 30
-150.0
 70
   192
  0
VERTEX
  5
1635
  8
0
 10
-72.99999999999955
 20
59.99999999999999
 30
-166.9999999999999
 70
   192
  0
VERTEX
  5
1636
  8
0
 10
-72.99999999999955
 20
41.00000000000004
 30
-166.9999999999999
 70
   192
  0
VERTEX
  5
1637
  8
0
 10
-77.97918471982823
 20
59.99999999999999
 30
-154.9791847198287
 70
   192
  0
VERTEX
  5
1638
  8
0
 10
-77.97918471982823
 20
41.00000000000004
 30
-154.9791847198287
 70
   192
  0
VERTEX
  5
1639
  8
0
 10
-77.97918471982823
 20
59.99999999999999
 30
-179.0208152801712
 70
   192
  0
VERTEX
  5
163A
  8
0
 10
-77.97918471982823
 20
41.00000000000004
 30
-179.0208152801712
 70
   192
  0
VERTEX
  5
163B
  8
0
 10
0.0
 20
0.0
 30
0.0
 70
   128
 71
     8
 72
     1
 73
    -4
  0
VERTEX
  5
163C
  8
0
 10
0.0
 20
0.0
 30
0.0
 70
   128
 71
     7
 72
    -8
 73
     4
  0
VERTEX
  5
163D
  8
0
 10
0.0
 20
0.0
 30
0.0
 70
   128
 71
     6
 72
     8
 73
    -7
  0
VERTEX
  5
163E
  8
0
 10
0.0
 20
0.0
 30
0.0
 70
   128
 71
     5
 72
    -6
 73
     7
  0
VERTEX
  5
163F
  8
0
 10
0.0
 20
0.0
 30
0.0
 70
   128
 71
    10
 72
     6
 73
    -5
  0
VERTEX
  5
1640
  8
0
 10
0.0
 20
0.0
 30
0.0
 70
   128
 71
     9
 72
   -10
 73
     5
  0
VERTEX
  5
1641
  8
0
 10
0.0
 20
0.0
 30
0.0
 70
   128
 71
     3
 72
     2
 73
   -10
  0
VERTEX
  5
1642
  8
0
 10
0.0
 20
0.0
 30
0.0
 70
   128
 71
     9
 72
    -3
 73
    10
  0
SEQEND
  5
18A5
  8
0
  0
POLYLINE
  5
1643
  8
0
 66
     1
 10
0.0
 20
0.0
 30
0.0
 70
    64
 71
    12
 72
    10
  0
VERTEX
  5
1644
  8
0
 10
-262.0
 20
-90.00000000000028
 30
27.50000000000003
 70
   192
  0
VERTEX
  5
1645
  8
0
 10
-262.0
 20
-76.07417109108872
 30
27.50000000000003
 70
   192
  0
VERTEX
  5
1646
  8
0
 10
-246.0900974233027
 20
-76.0741710910887
 30
20.90990257669736
 70
   192
  0
VERTEX
  5
1647
  8
0
 10
-250.75
 20
-90.00000000000028
 30
24.48557158514991
 70
   192
  0
VERTEX
  5
1648
  8
0
 10
-239.5
 20
-76.0741710910887
 30
5.000000000000064
 70
   192
  0
VERTEX
  5
1649
  8
0
 10
-239.5
 20
-90.00000000000028
 30
5.00000000000008
 70
   192
  0
VERTEX
  5
164A
  8
0
 10
-242.5144284148502
 20
-90.00000000000028
 30
16.25000000000006
 70
   192
  0
VERTEX
  5
164B
  8
0
 10
-246.0900974233027
 20
-76.0741710910887
 30
-10.90990257669723
 70
   192
  0
VERTEX
  5
164C
  8
0
 10
-242.5144284148502
 20
-90.00000000000028
 30
-6.249999999999908
 70
   192
  0
VERTEX
  5
164D
  8
0
 10
-262.0
 20
-76.07417109108872
 30
-17.4999999999999
 70
   192
  0
VERTEX
  5
164E
  8
0
 10
-262.0
 20
-90.00000000000028
 30
-17.4999999999999
 70
   192
  0
VERTEX
  5
164F
  8
0
 10
-250.75
 20
-90.00000000000028
 30
-14.48557158514977
 70
   192
  0
VERTEX
  5
1650
  8
0
 10
0.0
 20
0.0
 30
0.0
 70
   128
 71
     1
 72
     2
 73
     3
  0
VERTEX
  5
1651
  8
0
 10
0.0
 20
0.0
 30
0.0
 70
   128
 71
     4
 72
     1
 73
     3
  0
VERTEX
  5
1652
  8
0
 10
0.0
 20
0.0
 30
0.0
 70
   128
 71
     5
 72
     6
 73
     7
  0
VERTEX
  5
1653
  8
0
 10
0.0
 20
0.0
 30
0.0
 70
   128
 71
     3
 72
     5
 73
     7
  0
VERTEX
  5
1654
  8
0
 10
0.0
 20
0.0
 30
0.0
 70
   128
 71
     6
 72
     5
 73
     8
  0
VERTEX
  5
1655
  8
0
 10
0.0
 20
0.0
 30
0.0
 70
   128
 71
     9
 72
     6
 73
     8
  0
VERTEX
  5
1656
  8
0
 10
0.0
 20
0.0
 30
0.0
 70
   128
 71
    10
 72
    11
 73
    12
  0
VERTEX
  5
1657
  8
0
 10
0.0
 20
0.0
 30
0.0
 70
   128
 71
     8
 72
    10
 73
    12
  0
VERTEX
  5
1658
  8
0
 10
0.0
 20
0.0
 30
0.0
 70
   128
 71
     3
 72
     7
 73
     4
  0
VERTEX
  5
1659
  8
0
 10
0.0
 20
0.0
 30
0.0
 70
   128
 71
     8
 72
    12
 73
     9
  0
SEQEND
  5
18A6
  8
0
  0
POLYLINE
  5
165A
  8
0
 66
     1
 10
0.0
 20
0.0
 30
0.0
 70
    64
 71
    12
 72
    10
  0
VERTEX
  5
165B
  8
0
 10
-262.0
 20
-76.0741710910887
 30
27.50000000000003
 70
   192
  0
VERTEX
  5
165C
  8
0
 10
-262.0
 20
-69.07417109108872
 30
37.6204195601883
 70
   192
  0
VERTEX
  5
165D
  8
0
 10
-245.6897902199059
 20
-69.07417109108872
 30
33.25011202122988
 70
   192
  0
VERTEX
  5
165E
  8
0
 10
-246.0900974233027
 20
-76.0741710910887
 30
20.90990257669736
 70
   192
  0
VERTEX
  5
165F
  8
0
 10
-229.3795804398118
 20
-69.07417109108872
 30
5.000000000000088
 70
   192
  0
VERTEX
  5
1660
  8
0
 10
-239.5
 20
-76.0741710910887
 30
5.000000000000064
 70
   192
  0
VERTEX
  5
1661
  8
0
 10
-233.7498879787702
 20
-69.07417109108872
 30
21.31020978009419
 70
   192
  0
VERTEX
  5
1662
  8
0
 10
-233.7498879787702
 20
-69.07417109108872
 30
-11.31020978009404
 70
   192
  0
VERTEX
  5
1663
  8
0
 10
-246.0900974233027
 20
-76.0741710910887
 30
-10.90990257669723
 70
   192
  0
VERTEX
  5
1664
  8
0
 10
-262.0
 20
-69.07417109108872
 30
-27.62041956018818
 70
   192
  0
VERTEX
  5
1665
  8
0
 10
-262.0
 20
-76.0741710910887
 30
-17.4999999999999
 70
   192
  0
VERTEX
  5
1666
  8
0
 10
-245.6897902199059
 20
-69.07417109108872
 30
-23.25011202122975
 70
   192
  0
VERTEX
  5
1667
  8
0
 10
0.0
 20
0.0
 30
0.0
 70
   128
 71
     1
 72
     2
 73
     3
  0
VERTEX
  5
1668
  8
0
 10
0.0
 20
0.0
 30
0.0
 70
   128
 71
     4
 72
     1
 73
     3
  0
VERTEX
  5
1669
  8
0
 10
0.0
 20
0.0
 30
0.0
 70
   128
 71
     5
 72
     6
 73
     4
  0
VERTEX
  5
166A
  8
0
 10
0.0
 20
0.0
 30
0.0
 70
   128
 71
     7
 72
     5
 73
     4
  0
VERTEX
  5
166B
  8
0
 10
0.0
 20
0.0
 30
0.0
 70
   128
 71
     6
 72
     5
 73
     8
  0
VERTEX
  5
166C
  8
0
 10
0.0
 20
0.0
 30
0.0
 70
   128
 71
     9
 72
     6
 73
     8
  0
VERTEX
  5
166D
  8
0
 10
0.0
 20
0.0
 30
0.0
 70
   128
 71
    10
 72
    11
 73
     9
  0
VERTEX
  5
166E
  8
0
 10
0.0
 20
0.0
 30
0.0
 70
   128
 71
    12
 72
    10
 73
     9
  0
VERTEX
  5
166F
  8
0
 10
0.0
 20
0.0
 30
0.0
 70
   128
 71
     7
 72
     4
 73
     3
  0
VERTEX
  5
1670
  8
0
 10
0.0
 20
0.0
 30
0.0
 70
   128
 71
    12
 72
     9
 73
     8
  0
SEQEND
  5
18A7
  8
0
  0
POLYLINE
  5
1671
  8
0
 66
     1
 10
0.0
 20
0.0
 30
0.0
 70
    64
 71
    21
 72
    22
  0
VERTEX
  5
1672
  8
0
 10
-97.45517328095661
 20
41.00000000000004
 30
100.0000000000001
 70
   192
  0
VERTEX
  5
1673
  8
0
 10
-72.00000000000003
 20
41.0
 30
5.000000000000088
 70
   192
  0
VERTEX
  5
1674
  8
0
 10
-112.209405668537
 20
-11.42018226722777
 30
5.000000000000083
 70
   192
  0
VERTEX
  5
1675
  8
0
 10
-166.3472943191333
 20
-49.28521660765847
 30
5.000000000000075
 70
   192
  0
VERTEX
  5
1676
  8
0
 10
-229.3795804398119
 20
-69.07417109108869
 30
5.000000000000068
 70
   192
  0
VERTEX
  5
1677
  8
0
 10
-233.7498879787702
 20
-69.07417109108872
 30
21.31020978009419
 70
   192
  0
VERTEX
  5
1678
  8
0
 10
-262.0
 20
-41.296541041144
 30
115.4152957353614
 70
   192
  0
VERTEX
  5
1679
  8
0
 10
-167.0
 20
-15.27199598670114
 30
115.4152957353614
 70
   192
  0
VERTEX
  5
167A
  8
0
 10
-245.6897902199059
 20
-69.07417109108872
 30
33.25011202122988
 70
   192
  0
VERTEX
  5
167B
  8
0
 10
-262.0
 20
-69.07417109108872
 30
37.6204195601883
 70
   192
  0
VERTEX
  5
167C
  8
0
 10
-262.0000000000001
 20
41.00000000000004
 30
195.0000000000001
 70
   192
  0
VERTEX
  5
167D
  8
0
 10
-278.3102097800941
 20
-69.07417109108872
 30
33.25011202122987
 70
   192
  0
VERTEX
  5
167E
  8
0
 10
-290.2501120212298
 20
-69.07417109108872
 30
21.31020978009419
 70
   192
  0
VERTEX
  5
167F
  8
0
 10
-294.6204195601882
 20
-69.07417109108872
 30
5.000000000000058
 70
   192
  0
VERTEX
  5
1680
  8
0
 10
-357.6527056808667
 20
-49.28521660765847
 30
5.000000000000064
 70
   192
  0
VERTEX
  5
1681
  8
0
 10
-411.790594331463
 20
-11.42018226722777
 30
5.000000000000064
 70
   192
  0
VERTEX
  5
1682
  8
0
 10
-357.0
 20
-15.27199598670117
 30
115.4152957353614
 70
   192
  0
VERTEX
  5
1683
  8
0
 10
-167.0
 20
41.00000000000004
 30
169.5448267190435
 70
   192
  0
VERTEX
  5
1684
  8
0
 10
-357.0000000000001
 20
41.00000000000004
 30
169.5448267190434
 70
   192
  0
VERTEX
  5
1685
  8
0
 10
-452.0
 20
41.0
 30
5.000000000000064
 70
   192
  0
VERTEX
  5
1686
  8
0
 10
-426.5448267190434
 20
41.00000000000004
 30
100.0000000000001
 70
   192
  0
VERTEX
  5
1687
  8
0
 10
0.0
 20
0.0
 30
0.0
 70
   128
 71
     1
 72
     2
 73
     3
  0
VERTEX
  5
1688
  8
0
 10
0.0
 20
0.0
 30
0.0
 70
   128
 71
     4
 72
     5
 73
     6
  0
VERTEX
  5
1689
  8
0
 10
0.0
 20
0.0
 30
0.0
 70
   128
 71
     7
 72
     8
 73
     4
  0
VERTEX
  5
168A
  8
0
 10
0.0
 20
0.0
 30
0.0
 70
   128
 71
     9
 72
     7
 73
     4
  0
VERTEX
  5
168B
  8
0
 10
0.0
 20
0.0
 30
0.0
 70
   128
 71
     6
 72
     9
 73
     4
  0
VERTEX
  5
168C
  8
0
 10
0.0
 20
0.0
 30
0.0
 70
   128
 71
     9
 72
    10
 73
     7
  0
VERTEX
  5
168D
  8
0
 10
0.0
 20
0.0
 30
0.0
 70
   128
 71
     7
 72
    11
 73
     8
  0
VERTEX
  5
168E
  8
0
 10
0.0
 20
0.0
 30
0.0
 70
   128
 71
     7
 72
    10
 73
    12
  0
VERTEX
  5
168F
  8
0
 10
0.0
 20
0.0
 30
0.0
 70
   128
 71
    12
 72
    13
 73
     7
  0
VERTEX
  5
1690
  8
0
 10
0.0
 20
0.0
 30
0.0
 70
   128
 71
    13
 72
    14
 73
    15
  0
VERTEX
  5
1691
  8
0
 10
0.0
 20
0.0
 30
0.0
 70
   128
 71
    13
 72
    15
 73
    16
  0
VERTEX
  5
1692
  8
0
 10
0.0
 20
0.0
 30
0.0
 70
   128
 71
     7
 72
    13
 73
    16
  0
VERTEX
  5
1693
  8
0
 10
0.0
 20
0.0
 30
0.0
 70
   128
 71
    17
 72
     7
 73
    16
  0
VERTEX
  5
1694
  8
0
 10
0.0
 20
0.0
 30
0.0
 70
   128
 71
     3
 72
     4
 73
     8
  0
VERTEX
  5
1695
  8
0
 10
0.0
 20
0.0
 30
0.0
 70
   128
 71
     1
 72
     3
 73
     8
  0
VERTEX
  5
1696
  8
0
 10
0.0
 20
0.0
 30
0.0
 70
   128
 71
    18
 72
     1
 73
     8
  0
VERTEX
  5
1697
  8
0
 10
0.0
 20
0.0
 30
0.0
 70
   128
 71
    18
 72
     8
 73
    11
  0
VERTEX
  5
1698
  8
0
 10
0.0
 20
0.0
 30
0.0
 70
   128
 71
    11
 72
     7
 73
    17
  0
VERTEX
  5
1699
  8
0
 10
0.0
 20
0.0
 30
0.0
 70
   128
 71
    19
 72
    11
 73
    17
  0
VERTEX
  5
169A
  8
0
 10
0.0
 20
0.0
 30
0.0
 70
   128
 71
    16
 72
    20
 73
    21
  0
VERTEX
  5
169B
  8
0
 10
0.0
 20
0.0
 30
0.0
 70
   128
 71
    17
 72
    16
 73
    21
  0
VERTEX
  5
169C
  8
0
 10
0.0
 20
0.0
 30
0.0
 70
   128
 71
    19
 72
    17
 73
    21
  0
SEQEND
  5
18A8
  8
0
  0
POLYLINE
  5
169D
  8
0
 66
     1
 10
0.0
 20
0.0
 30
0.0
 70
    64
 71
     9
 72
     7
  0
VERTEX
  5
169E
  8
0
 10
-395.9620834398408
 20
-32.5142482745802
 30
-74.28882650014587
 70
   192
  0
VERTEX
  5
169F
  8
0
 10
-395.9620834398408
 20
-32.5142482745802
 30
-215.0
 70
   192
  0
VERTEX
  5
16A0
  8
0
 10
-393.4642303117093
 20
-37.83469066073514
 30
-215.0
 70
   192
  0
VERTEX
  5
16A1
  8
0
 10
-382.5357696882908
 20
-37.83469066073515
 30
-215.0
 70
   192
  0
VERTEX
  5
16A2
  8
0
 10
-380.0379165601593
 20
-32.5142482745802
 30
-215.0
 70
   192
  0
VERTEX
  5
16A3
  8
0
 10
-380.0379165601593
 20
-32.5142482745802
 30
-96.48698468990966
 70
   192
  0
VERTEX
  5
16A4
  8
0
 10
-382.8792252257655
 20
-38.13948704440663
 30
-82.12504295478949
 70
   192
  0
VERTEX
  5
16A5
  8
0
 10
-388.0000000000001
 20
-39.99999999999996
 30
-215.0
 70
   192
  0
VERTEX
  5
16A6
  8
0
 10
-389.3851404413314
 20
-39.87893058139066
 30
-68.04147873199035
 70
   192
  0
VERTEX
  5
16A7
  8
0
 10
0.0
 20
0.0
 30
0.0
 70
   128
 71
     1
 72
     2
 73
     3
  0
VERTEX
  5
16A8
  8
0
 10
0.0
 20
0.0
 30
0.0
 70
   128
 71
     4
 72
     5
 73
     6
  0
VERTEX
  5
16A9
  8
0
 10
0.0
 20
0.0
 30
0.0
 70
   128
 71
     6
 72
     7
 73
     8
  0
VERTEX
  5
16AA
  8
0
 10
0.0
 20
0.0
 30
0.0
 70
   128
 71
     6
 72
     8
 73
     4
  0
VERTEX
  5
16AB
  8
0
 10
0.0
 20
0.0
 30
0.0
 70
   128
 71
     8
 72
     7
 73
     9
  0
VERTEX
  5
16AC
  8
0
 10
0.0
 20
0.0
 30
0.0
 70
   128
 71
     8
 72
     9
 73
     1
  0
VERTEX
  5
16AD
  8
0
 10
0.0
 20
0.0
 30
0.0
 70
   128
 71
     8
 72
     1
 73
     3
  0
SEQEND
  5
18A9
  8
0
  0
POLYLINE
  5
16AE
  8
0
 66
     1
 10
0.0
 20
0.0
 30
0.0
 70
    64
 71
     6
 72
     4
  0
VERTEX
  5
16AF
  8
0
 10
-375.5000000000001
 20
41.00000000000003
 30
-215.0
 70
   192
  0
VERTEX
  5
16B0
  8
0
 10
-380.0379165601593
 20
-32.5142482745802
 30
-215.0
 70
   192
  0
VERTEX
  5
16B1
  8
0
 10
-380.0379165601594
 20
-32.51424827458027
 30
-96.4869846899096
 70
   192
  0
VERTEX
  5
16B2
  8
0
 10
-378.8067351197829
 20
-12.5691089404809
 30
-126.4397426926407
 70
   192
  0
VERTEX
  5
16B3
  8
0
 10
-377.2792154082305
 20
12.17671038666745
 30
-152.5511044366192
 70
   192
  0
VERTEX
  5
16B4
  8
0
 10
-375.5000000000001
 20
41.00000000000003
 30
-174.057951512911
 70
   192
  0
VERTEX
  5
16B5
  8
0
 10
0.0
 20
0.0
 30
0.0
 70
   128
 71
     4
 72
     3
 73
    -2
  0
VERTEX
  5
16B6
  8
0
 10
0.0
 20
0.0
 30
0.0
 70
   128
 71
    -2
 72
     5
 73
    -4
  0
VERTEX
  5
16B7
  8
0
 10
0.0
 20
0.0
 30
0.0
 70
   128
 71
     2
 72
     1
 73
    -6
  0
VERTEX
  5
16B8
  8
0
 10
0.0
 20
0.0
 30
0.0
 70
   128
 71
    -2
 72
     6
 73
    -5
  0
SEQEND
  5
18AA
  8
0
  0
POLYLINE
  5
16B9
  8
0
 66
     1
 10
0.0
 20
0.0
 30
0.0
 70
    64
 71
     6
 72
     4
  0
VERTEX
  5
16BA
  8
0
 10
-395.9620834398408
 20
-32.5142482745802
 30
-215.0
 70
   192
  0
VERTEX
  5
16BB
  8
0
 10
-400.5000000000001
 20
41.00000000000003
 30
-215.0
 70
   192
  0
VERTEX
  5
16BC
  8
0
 10
-400.5000000000001
 20
41.0
 30
-155.5046728291733
 70
   192
  0
VERTEX
  5
16BD
  8
0
 10
-398.6638390363717
 20
11.2541923892198
 30
-133.5226546937824
 70
   192
  0
VERTEX
  5
16BE
  8
0
 10
-397.1311001955782
 20
-13.57617683163534
 30
-106.0909731046326
 70
   192
  0
VERTEX
  5
16BF
  8
0
 10
-395.9620834398408
 20
-32.5142482745802
 30
-74.28882650014589
 70
   192
  0
VERTEX
  5
16C0
  8
0
 10
0.0
 20
0.0
 30
0.0
 70
   128
 71
     4
 72
     3
 73
    -2
  0
VERTEX
  5
16C1
  8
0
 10
0.0
 20
0.0
 30
0.0
 70
   128
 71
    -4
 72
     2
 73
    -1
  0
VERTEX
  5
16C2
  8
0
 10
0.0
 20
0.0
 30
0.0
 70
   128
 71
    -1
 72
     5
 73
    -4
  0
VERTEX
  5
16C3
  8
0
 10
0.0
 20
0.0
 30
0.0
 70
   128
 71
     1
 72
     6
 73
    -5
  0
SEQEND
  5
18AB
  8
0
  0
POLYLINE
  5
16C4
  8
0
 66
     1
 10
0.0
 20
0.0
 30
0.0
 70
    64
 71
     6
 72
     4
  0
VERTEX
  5
16C5
  8
0
 10
-142.9620834398407
 20
-32.51424827458018
 30
-215.0
 70
   192
  0
VERTEX
  5
16C6
  8
0
 10
-147.5000000000001
 20
41.00000000000006
 30
-215.0
 70
   192
  0
VERTEX
  5
16C7
  8
0
 10
-147.5
 20
41.0
 30
-173.4201502073126
 70
   192
  0
VERTEX
  5
16C8
  8
0
 10
-145.717248346479
 20
12.1194232129601
 30
-151.763311033243
 70
   192
  0
VERTEX
  5
16C9
  8
0
 10
-144.1895416034166
 20
-12.62942602465148
 30
-125.4679659025373
 70
   192
  0
VERTEX
  5
16CA
  8
0
 10
-142.9620834398407
 20
-32.51424827458018
 30
-95.31217387899466
 70
   192
  0
VERTEX
  5
16CB
  8
0
 10
0.0
 20
0.0
 30
0.0
 70
   128
 71
     4
 72
     3
 73
    -2
  0
VERTEX
  5
16CC
  8
0
 10
0.0
 20
0.0
 30
0.0
 70
   128
 71
    -4
 72
     2
 73
    -1
  0
VERTEX
  5
16CD
  8
0
 10
0.0
 20
0.0
 30
0.0
 70
   128
 71
    -1
 72
     5
 73
    -4
  0
VERTEX
  5
16CE
  8
0
 10
0.0
 20
0.0
 30
0.0
 70
   128
 71
     1
 72
     6
 73
    -5
  0
SEQEND
  5
18AC
  8
0
  0
POLYLINE
  5
16CF
  8
0
 66
     1
 10
0.0
 20
0.0
 30
0.0
 70
    64
 71
     6
 72
     4
  0
VERTEX
  5
16D0
  8
0
 10
-122.5
 20
41.00000000000007
 30
-215.0
 70
   192
  0
VERTEX
  5
16D1
  8
0
 10
-127.0379165601593
 20
-32.51424827458017
 30
-215.0
 70
   192
  0
VERTEX
  5
16D2
  8
0
 10
-127.0379165601593
 20
-32.51424827458018
 30
-72.57444064181595
 70
   192
  0
VERTEX
  5
16D3
  8
0
 10
-125.8760833819456
 20
-13.69255078751797
 30
-104.70392204915
 70
   192
  0
VERTEX
  5
16D4
  8
0
 10
-124.3429263738703
 20
11.1445927433022
 30
-132.4289190545735
 70
   192
  0
VERTEX
  5
16D5
  8
0
 10
-122.5000000000001
 20
41.00000000000006
 30
-154.636305394481
 70
   192
  0
VERTEX
  5
16D6
  8
0
 10
0.0
 20
0.0
 30
0.0
 70
   128
 71
     4
 72
     3
 73
    -2
  0
VERTEX
  5
16D7
  8
0
 10
0.0
 20
0.0
 30
0.0
 70
   128
 71
    -2
 72
     5
 73
    -4
  0
VERTEX
  5
16D8
  8
0
 10
0.0
 20
0.0
 30
0.0
 70
   128
 71
     2
 72
     1
 73
    -6
  0
VERTEX
  5
16D9
  8
0
 10
0.0
 20
0.0
 30
0.0
 70
   128
 71
    -2
 72
     6
 73
    -5
  0
SEQEND
  5
18AD
  8
0
  0
POLYLINE
  5
16DA
  8
0
 66
     1
 10
0.0
 20
0.0
 30
0.0
 70
    64
 71
     9
 72
     7
  0
VERTEX
  5
16DB
  8
0
 10
-140.0986658378413
 20
-38.15832027001537
 30
-80.64886063816421
 70
   192
  0
VERTEX
  5
16DC
  8
0
 10
-140.4642303117093
 20
-37.8346906607351
 30
-215.0
 70
   192
  0
VERTEX
  5
16DD
  8
0
 10
-135.0000000000001
 20
-39.9999999999999
 30
-215.0
 70
   192
  0
VERTEX
  5
16DE
  8
0
 10
-142.9620834398407
 20
-32.51424827458019
 30
-95.31217387899467
 70
   192
  0
VERTEX
  5
16DF
  8
0
 10
-142.9620834398407
 20
-32.51424827458018
 30
-215.0
 70
   192
  0
VERTEX
  5
16E0
  8
0
 10
-127.0379165601594
 20
-32.51424827458017
 30
-215.0
 70
   192
  0
VERTEX
  5
16E1
  8
0
 10
-127.0379165601593
 20
-32.51424827458017
 30
-72.57444064181578
 70
   192
  0
VERTEX
  5
16E2
  8
0
 10
-133.5881627629497
 20
-39.87407596610235
 30
-66.23360902992414
 70
   192
  0
VERTEX
  5
16E3
  8
0
 10
-129.5357696882908
 20
-37.83469066073509
 30
-215.0
 70
   192
  0
VERTEX
  5
16E4
  8
0
 10
0.0
 20
0.0
 30
0.0
 70
   128
 71
     1
 72
     2
 73
     3
  0
VERTEX
  5
16E5
  8
0
 10
0.0
 20
0.0
 30
0.0
 70
   128
 71
     4
 72
     5
 73
     2
  0
VERTEX
  5
16E6
  8
0
 10
0.0
 20
0.0
 30
0.0
 70
   128
 71
     6
 72
     7
 73
     8
  0
VERTEX
  5
16E7
  8
0
 10
0.0
 20
0.0
 30
0.0
 70
   128
 71
     9
 72
     6
 73
     8
  0
VERTEX
  5
16E8
  8
0
 10
0.0
 20
0.0
 30
0.0
 70
   128
 71
     8
 72
     1
 73
     3
  0
VERTEX
  5
16E9
  8
0
 10
0.0
 20
0.0
 30
0.0
 70
   128
 71
     8
 72
     3
 73
     9
  0
VERTEX
  5
16EA
  8
0
 10
0.0
 20
0.0
 30
0.0
 70
   128
 71
     1
 72
     4
 73
     2
  0
SEQEND
  5
18AE
  8
0
  0
POLYLINE
  5
16EB
  8
0
 66
     1
 10
0.0
 20
0.0
 30
0.0
 70
    64
 71
    10
 72
     8
  0
VERTEX
  5
16EC
  8
0
 10
408.5000000000002
 20
4.999999999999994
 30
-215.0000000000005
 70
   192
  0
VERTEX
  5
16ED
  8
0
 10
421.5000000000002
 20
4.999999999999995
 30
-215.0000000000005
 70
   192
  0
VERTEX
  5
16EE
  8
0
 10
421.5000000000002
 20
4.999999999999995
 30
-235.0000000000005
 70
   192
  0
VERTEX
  5
16EF
  8
0
 10
408.5000000000001
 20
4.999999999999994
 30
-235.0000000000005
 70
   192
  0
VERTEX
  5
16F0
  8
0
 10
415.0000000000002
 20
11.5
 30
-235.0000000000005
 70
   192
  0
VERTEX
  5
16F1
  8
0
 10
415.0000000000002
 20
11.5
 30
-215.0000000000005
 70
   192
  0
VERTEX
  5
16F2
  8
0
 10
410.4038059222876
 20
9.596194077712557
 30
-235.0000000000005
 70
   192
  0
VERTEX
  5
16F3
  8
0
 10
410.4038059222876
 20
9.596194077712557
 30
-215.0000000000005
 70
   192
  0
VERTEX
  5
16F4
  8
0
 10
419.5961940777127
 20
9.596194077712557
 30
-235.0000000000005
 70
   192
  0
VERTEX
  5
16F5
  8
0
 10
419.5961940777127
 20
9.596194077712557
 30
-215.0000000000005
 70
   192
  0
VERTEX
  5
16F6
  8
0
 10
0.0
 20
0.0
 30
0.0
 70
   128
 71
     8
 72
     1
 73
    -4
  0
VERTEX
  5
16F7
  8
0
 10
0.0
 20
0.0
 30
0.0
 70
   128
 71
     7
 72
    -8
 73
     4
  0
VERTEX
  5
16F8
  8
0
 10
0.0
 20
0.0
 30
0.0
 70
   128
 71
     6
 72
     8
 73
    -7
  0
VERTEX
  5
16F9
  8
0
 10
0.0
 20
0.0
 30
0.0
 70
   128
 71
     5
 72
    -6
 73
     7
  0
VERTEX
  5
16FA
  8
0
 10
0.0
 20
0.0
 30
0.0
 70
   128
 71
    10
 72
     6
 73
    -5
  0
VERTEX
  5
16FB
  8
0
 10
0.0
 20
0.0
 30
0.0
 70
   128
 71
     9
 72
   -10
 73
     5
  0
VERTEX
  5
16FC
  8
0
 10
0.0
 20
0.0
 30
0.0
 70
   128
 71
     3
 72
     2
 73
   -10
  0
VERTEX
  5
16FD
  8
0
 10
0.0
 20
0.0
 30
0.0
 70
   128
 71
     9
 72
    -3
 73
    10
  0
SEQEND
  5
18AF
  8
0
  0
POLYLINE
  5
16FE
  8
0
 66
     1
 10
0.0
 20
0.0
 30
0.0
 70
    64
 71
    10
 72
     8
  0
VERTEX
  5
16FF
  8
0
 10
63.50000000000015
 20
4.999999999999994
 30
-215.0000000000005
 70
   192
  0
VERTEX
  5
1700
  8
0
 10
76.5000000000002
 20
4.999999999999995
 30
-215.0000000000005
 70
   192
  0
VERTEX
  5
1701
  8
0
 10
76.5000000000002
 20
4.999999999999995
 30
-235.0000000000005
 70
   192
  0
VERTEX
  5
1702
  8
0
 10
63.50000000000016
 20
4.999999999999994
 30
-235.0000000000005
 70
   192
  0
VERTEX
  5
1703
  8
0
 10
70.00000000000017
 20
11.50000000000001
 30
-235.0000000000005
 70
   192
  0
VERTEX
  5
1704
  8
0
 10
70.00000000000017
 20
11.50000000000001
 30
-215.0000000000005
 70
   192
  0
VERTEX
  5
1705
  8
0
 10
65.4038059222876
 20
9.596194077712568
 30
-235.0000000000005
 70
   192
  0
VERTEX
  5
1706
  8
0
 10
65.4038059222876
 20
9.596194077712568
 30
-215.0000000000005
 70
   192
  0
VERTEX
  5
1707
  8
0
 10
74.59619407771274
 20
9.596194077712568
 30
-235.0000000000005
 70
   192
  0
VERTEX
  5
1708
  8
0
 10
74.59619407771274
 20
9.596194077712568
 30
-215.0000000000005
 70
   192
  0
VERTEX
  5
1709
  8
0
 10
0.0
 20
0.0
 30
0.0
 70
   128
 71
     8
 72
     1
 73
    -4
  0
VERTEX
  5
170A
  8
0
 10
0.0
 20
0.0
 30
0.0
 70
   128
 71
     7
 72
    -8
 73
     4
  0
VERTEX
  5
170B
  8
0
 10
0.0
 20
0.0
 30
0.0
 70
   128
 71
     6
 72
     8
 73
    -7
  0
VERTEX
  5
170C
  8
0
 10
0.0
 20
0.0
 30
0.0
 70
   128
 71
     5
 72
    -6
 73
     7
  0
VERTEX
  5
170D
  8
0
 10
0.0
 20
0.0
 30
0.0
 70
   128
 71
    10
 72
     6
 73
    -5
  0
VERTEX
  5
170E
  8
0
 10
0.0
 20
0.0
 30
0.0
 70
   128
 71
     9
 72
   -10
 73
     5
  0
VERTEX
  5
170F
  8
0
 10
0.0
 20
0.0
 30
0.0
 70
   128
 71
     3
 72
     2
 73
   -10
  0
VERTEX
  5
1710
  8
0
 10
0.0
 20
0.0
 30
0.0
 70
   128
 71
     9
 72
    -3
 73
    10
  0
SEQEND
  5
18B0
  8
0
  0
POLYLINE
  5
1711
  8
0
 66
     1
 10
0.0
 20
0.0
 30
0.0
 70
    64
 71
    10
 72
     8
  0
VERTEX
  5
1712
  8
0
 10
-76.50000000000018
 20
4.999999999999993
 30
-215.0000000000005
 70
   192
  0
VERTEX
  5
1713
  8
0
 10
-63.50000000000016
 20
4.999999999999995
 30
-215.0000000000005
 70
   192
  0
VERTEX
  5
1714
  8
0
 10
-63.50000000000016
 20
4.999999999999995
 30
-235.0000000000005
 70
   192
  0
VERTEX
  5
1715
  8
0
 10
-76.5000000000002
 20
4.999999999999994
 30
-235.0000000000005
 70
   192
  0
VERTEX
  5
1716
  8
0
 10
-70.00000000000017
 20
11.50000000000001
 30
-235.0000000000005
 70
   192
  0
VERTEX
  5
1717
  8
0
 10
-70.00000000000017
 20
11.50000000000001
 30
-215.0000000000005
 70
   192
  0
VERTEX
  5
1718
  8
0
 10
-74.59619407771274
 20
9.596194077712566
 30
-235.0000000000005
 70
   192
  0
VERTEX
  5
1719
  8
0
 10
-74.59619407771274
 20
9.596194077712566
 30
-215.0000000000005
 70
   192
  0
VERTEX
  5
171A
  8
0
 10
-65.4038059222876
 20
9.596194077712568
 30
-235.0000000000005
 70
   192
  0
VERTEX
  5
171B
  8
0
 10
-65.4038059222876
 20
9.596194077712568
 30
-215.0000000000005
 70
   192
  0
VERTEX
  5
171C
  8
0
 10
0.0
 20
0.0
 30
0.0
 70
   128
 71
     8
 72
     1
 73
    -4
  0
VERTEX
  5
171D
  8
0
 10
0.0
 20
0.0
 30
0.0
 70
   128
 71
     7
 72
    -8
 73
     4
  0
VERTEX
  5
171E
  8
0
 10
0.0
 20
0.0
 30
0.0
 70
   128
 71
     6
 72
     8
 73
    -7
  0
VERTEX
  5
171F
  8
0
 10
0.0
 20
0.0
 30
0.0
 70
   128
 71
     5
 72
    -6
 73
     7
  0
VERTEX
  5
1720
  8
0
 10
0.0
 20
0.0
 30
0.0
 70
   128
 71
    10
 72
     6
 73
    -5
  0
VERTEX
  5
1721
  8
0
 10
0.0
 20
0.0
 30
0.0
 70
   128
 71
     9
 72
   -10
 73
     5
  0
VERTEX
  5
1722
  8
0
 10
0.0
 20
0.0
 30
0.0
 70
   128
 71
     3
 72
     2
 73
   -10
  0
VERTEX
  5
1723
  8
0
 10
0.0
 20
0.0
 30
0.0
 70
   128
 71
     9
 72
    -3
 73
    10
  0
SEQEND
  5
18B1
  8
0
  0
POLYLINE
  5
1724
  8
0
 66
     1
 10
0.0
 20
0.0
 30
0.0
 70
    64
 71
    10
 72
     8
  0
VERTEX
  5
1725
  8
0
 10
-421.5000000000002
 20
4.999999999999994
 30
-215.0000000000005
 70
   192
  0
VERTEX
  5
1726
  8
0
 10
-408.5000000000001
 20
4.999999999999995
 30
-215.0000000000005
 70
   192
  0
VERTEX
  5
1727
  8
0
 10
-408.5000000000001
 20
4.999999999999995
 30
-235.0000000000005
 70
   192
  0
VERTEX
  5
1728
  8
0
 10
-421.5000000000002
 20
4.999999999999994
 30
-235.0000000000005
 70
   192
  0
VERTEX
  5
1729
  8
0
 10
-415.0000000000002
 20
11.5
 30
-235.0000000000005
 70
   192
  0
VERTEX
  5
172A
  8
0
 10
-415.0000000000002
 20
11.5
 30
-215.0000000000005
 70
   192
  0
VERTEX
  5
172B
  8
0
 10
-419.5961940777127
 20
9.596194077712557
 30
-235.0000000000005
 70
   192
  0
VERTEX
  5
172C
  8
0
 10
-419.5961940777127
 20
9.596194077712557
 30
-215.0000000000005
 70
   192
  0
VERTEX
  5
172D
  8
0
 10
-410.4038059222876
 20
9.596194077712557
 30
-235.0000000000005
 70
   192
  0
VERTEX
  5
172E
  8
0
 10
-410.4038059222876
 20
9.596194077712557
 30
-215.0000000000005
 70
   192
  0
VERTEX
  5
172F
  8
0
 10
0.0
 20
0.0
 30
0.0
 70
   128
 71
     8
 72
     1
 73
    -4
  0
VERTEX
  5
1730
  8
0
 10
0.0
 20
0.0
 30
0.0
 70
   128
 71
     7
 72
    -8
 73
     4
  0
VERTEX
  5
1731
  8
0
 10
0.0
 20
0.0
 30
0.0
 70
   128
 71
     6
 72
     8
 73
    -7
  0
VERTEX
  5
1732
  8
0
 10
0.0
 20
0.0
 30
0.0
 70
   128
 71
     5
 72
    -6
 73
     7
  0
VERTEX
  5
1733
  8
0
 10
0.0
 20
0.0
 30
0.0
 70
   128
 71
    10
 72
     6
 73
    -5
  0
VERTEX
  5
1734
  8
0
 10
0.0
 20
0.0
 30
0.0
 70
   128
 71
     9
 72
   -10
 73
     5
  0
VERTEX
  5
1735
  8
0
 10
0.0
 20
0.0
 30
0.0
 70
   128
 71
     3
 72
     2
 73
   -10
  0
VERTEX
  5
1736
  8
0
 10
0.0
 20
0.0
 30
0.0
 70
   128
 71
     9
 72
    -3
 73
    10
  0
SEQEND
  5
18B2
  8
0
  0
POLYLINE
  5
1737
  8
0
 66
     1
 10
0.0
 20
0.0
 30
0.0
 70
    64
 71
    13
 72
    11
  0
VERTEX
  5
1738
  8
0
 10
261.9999999999999
 20
41.00000000000004
 30
195.0
 70
   192
  0
VERTEX
  5
1739
  8
0
 10
262.0
 20
60.00000000000003
 30
195.0000000000001
 70
   192
  0
VERTEX
  5
173A
  8
0
 10
373.67919793557
 20
60.00000000000002
 30
158.71322893124
 70
   192
  0
VERTEX
  5
173B
  8
0
 10
356.9999999999999
 20
41.00000000000004
 30
169.5448267190434
 70
   192
  0
VERTEX
  5
173C
  8
0
 10
426.5448267190434
 20
41.00000000000004
 30
-89.99999999999996
 70
   192
  0
VERTEX
  5
173D
  8
0
 10
452.0000000000001
 20
41.00000000000004
 30
5.000000000000125
 70
   192
  0
VERTEX
  5
173E
  8
0
 10
442.7007380960792
 20
60.0
 30
-53.7132289312401
 70
   192
  0
VERTEX
  5
173F
  8
0
 10
262.0
 20
59.99999999999999
 30
-185.0000000000001
 70
   192
  0
VERTEX
  5
1740
  8
0
 10
262.0
 20
41.00000000000004
 30
-185.0000000000001
 70
   192
  0
VERTEX
  5
1741
  8
0
 10
357.0000000000001
 20
41.00000000000004
 30
-159.5448267190434
 70
   192
  0
VERTEX
  5
1742
  8
0
 10
373.6791979355699
 20
59.99999999999999
 30
-148.7132289312401
 70
   192
  0
VERTEX
  5
1743
  8
0
 10
426.5448267190433
 20
41.00000000000004
 30
100.0000000000002
 70
   192
  0
VERTEX
  5
1744
  8
0
 10
442.7007380960792
 20
60.00000000000001
 30
63.71322893123997
 70
   192
  0
VERTEX
  5
1745
  8
0
 10
0.0
 20
0.0
 30
0.0
 70
   128
 71
     1
 72
     2
 73
     3
  0
VERTEX
  5
1746
  8
0
 10
0.0
 20
0.0
 30
0.0
 70
   128
 71
     4
 72
     1
 73
     3
  0
VERTEX
  5
1747
  8
0
 10
0.0
 20
0.0
 30
0.0
 70
   128
 71
     5
 72
     6
 73
     7
  0
VERTEX
  5
1748
  8
0
 10
0.0
 20
0.0
 30
0.0
 70
   128
 71
     8
 72
     9
 73
    10
  0
VERTEX
  5
1749
  8
0
 10
0.0
 20
0.0
 30
0.0
 70
   128
 71
    11
 72
     8
 73
    10
  0
VERTEX
  5
174A
  8
0
 10
0.0
 20
0.0
 30
0.0
 70
   128
 71
     6
 72
    12
 73
    13
  0
VERTEX
  5
174B
  8
0
 10
0.0
 20
0.0
 30
0.0
 70
   128
 71
     7
 72
     6
 73
    13
  0
VERTEX
  5
174C
  8
0
 10
0.0
 20
0.0
 30
0.0
 70
   128
 71
    12
 72
     4
 73
     3
  0
VERTEX
  5
174D
  8
0
 10
0.0
 20
0.0
 30
0.0
 70
   128
 71
    13
 72
    12
 73
     3
  0
VERTEX
  5
174E
  8
0
 10
0.0
 20
0.0
 30
0.0
 70
   128
 71
    10
 72
     5
 73
     7
  0
VERTEX
  5
174F
  8
0
 10
0.0
 20
0.0
 30
0.0
 70
   128
 71
    11
 72
    10
 73
     7
  0
SEQEND
  5
18B3
  8
0
  0
POLYLINE
  5
1750
  8
0
 66
     1
 10
0.0
 20
0.0
 30
0.0
 70
    64
 71
    10
 72
     8
  0
VERTEX
  5
1751
  8
0
 10
89.99999999999953
 20
41.00000000000004
 30
-149.9999999999999
 70
   192
  0
VERTEX
  5
1752
  8
0
 10
89.99999999999953
 20
41.00000000000004
 30
-183.9999999999999
 70
   192
  0
VERTEX
  5
1753
  8
0
 10
89.99999999999953
 20
59.99999999999999
 30
-183.9999999999999
 70
   192
  0
VERTEX
  5
1754
  8
0
 10
89.99999999999953
 20
59.99999999999999
 30
-150.0
 70
   192
  0
VERTEX
  5
1755
  8
0
 10
106.9999999999995
 20
59.99999999999999
 30
-166.9999999999999
 70
   192
  0
VERTEX
  5
1756
  8
0
 10
106.9999999999995
 20
41.00000000000004
 30
-166.9999999999999
 70
   192
  0
VERTEX
  5
1757
  8
0
 10
102.0208152801708
 20
59.99999999999999
 30
-154.9791847198287
 70
   192
  0
VERTEX
  5
1758
  8
0
 10
102.0208152801708
 20
41.00000000000004
 30
-154.9791847198287
 70
   192
  0
VERTEX
  5
1759
  8
0
 10
102.0208152801708
 20
59.99999999999999
 30
-179.0208152801712
 70
   192
  0
VERTEX
  5
175A
  8
0
 10
102.0208152801708
 20
41.00000000000004
 30
-179.0208152801712
 70
   192
  0
VERTEX
  5
175B
  8
0
 10
0.0
 20
0.0
 30
0.0
 70
   128
 71
     8
 72
     1
 73
    -4
  0
VERTEX
  5
175C
  8
0
 10
0.0
 20
0.0
 30
0.0
 70
   128
 71
     7
 72
    -8
 73
     4
  0
VERTEX
  5
175D
  8
0
 10
0.0
 20
0.0
 30
0.0
 70
   128
 71
     6
 72
     8
 73
    -7
  0
VERTEX
  5
175E
  8
0
 10
0.0
 20
0.0
 30
0.0
 70
   128
 71
     5
 72
    -6
 73
     7
  0
VERTEX
  5
175F
  8
0
 10
0.0
 20
0.0
 30
0.0
 70
   128
 71
    10
 72
     6
 73
    -5
  0
VERTEX
  5
1760
  8
0
 10
0.0
 20
0.0
 30
0.0
 70
   128
 71
     9
 72
   -10
 73
     5
  0
VERTEX
  5
1761
  8
0
 10
0.0
 20
0.0
 30
0.0
 70
   128
 71
     3
 72
     2
 73
   -10
  0
VERTEX
  5
1762
  8
0
 10
0.0
 20
0.0
 30
0.0
 70
   128
 71
     9
 72
    -3
 73
    10
  0
SEQEND
  5
18B4
  8
0
  0
POLYLINE
  5
1763
  8
0
 66
     1
 10
0.0
 20
0.0
 30
0.0
 70
    64
 71
    20
 72
    21
  0
VERTEX
  5
1764
  8
0
 10
281.4855715851498
 20
-90.00000000000028
 30
16.25000000000005
 70
   192
  0
VERTEX
  5
1765
  8
0
 10
284.4999999999999
 20
-90.00000000000028
 30
5.00000000000006
 70
   192
  0
VERTEX
  5
1766
  8
0
 10
361.5393550526992
 20
-69.07419109253331
 30
5.000000000000064
 70
   192
  0
VERTEX
  5
1767
  8
0
 10
370.9033733441997
 20
-29.69746042342888
 30
120.6085504270087
 70
   192
  0
VERTEX
  5
1768
  8
0
 10
261.9999999999999
 20
-60.84535824384292
 30
120.6085504270087
 70
   192
  0
VERTEX
  5
1769
  8
0
 10
273.25
 20
-90.00000000000028
 30
24.48557158514989
 70
   192
  0
VERTEX
  5
176A
  8
0
 10
262.0
 20
-90.00000000000028
 30
27.50000000000003
 70
   192
  0
VERTEX
  5
176B
  8
0
 10
250.75
 20
-90.00000000000028
 30
24.4855715851499
 70
   192
  0
VERTEX
  5
176C
  8
0
 10
242.5144284148502
 20
-90.00000000000028
 30
16.25000000000004
 70
   192
  0
VERTEX
  5
176D
  8
0
 10
162.4606449473009
 20
-69.07419109253343
 30
5.000000000000052
 70
   192
  0
VERTEX
  5
176E
  8
0
 10
239.5000000000002
 20
-90.00000000000028
 30
5.000000000000061
 70
   192
  0
VERTEX
  5
176F
  8
0
 10
153.0966266558003
 20
-29.69746042342885
 30
120.6085504270087
 70
   192
  0
VERTEX
  5
1770
  8
0
 10
50.0
 20
41.00000000000004
 30
5.000000000000064
 70
   192
  0
VERTEX
  5
1771
  8
0
 10
96.79323766010108
 20
-23.67878025019465
 30
5.000000000000044
 70
   192
  0
VERTEX
  5
1772
  8
0
 10
433.5116028074889
 20
41.00000000000004
 30
129.6104734860044
 70
   192
  0
VERTEX
  5
1773
  8
0
 10
327.5116028074889
 20
41.00000000000004
 30
206.6239814545726
 70
   192
  0
VERTEX
  5
1774
  8
0
 10
196.4883971925112
 20
41.00000000000004
 30
206.6239814545726
 70
   192
  0
VERTEX
  5
1775
  8
0
 10
427.2067623398989
 20
-23.67878025019465
 30
5.000000000000064
 70
   192
  0
VERTEX
  5
1776
  8
0
 10
474.0
 20
41.00000000000003
 30
5.000000000000064
 70
   192
  0
VERTEX
  5
1777
  8
0
 10
90.48839719251114
 20
41.00000000000004
 30
129.6104734860044
 70
   192
  0
VERTEX
  5
1778
  8
0
 10
0.0
 20
0.0
 30
0.0
 70
   128
 71
     1
 72
     2
 73
     3
  0
VERTEX
  5
1779
  8
0
 10
0.0
 20
0.0
 30
0.0
 70
   128
 71
     3
 72
     4
 73
     5
  0
VERTEX
  5
177A
  8
0
 10
0.0
 20
0.0
 30
0.0
 70
   128
 71
     3
 72
     5
 73
     6
  0
VERTEX
  5
177B
  8
0
 10
0.0
 20
0.0
 30
0.0
 70
   128
 71
     3
 72
     6
 73
     1
  0
VERTEX
  5
177C
  8
0
 10
0.0
 20
0.0
 30
0.0
 70
   128
 71
     5
 72
     7
 73
     6
  0
VERTEX
  5
177D
  8
0
 10
0.0
 20
0.0
 30
0.0
 70
   128
 71
     8
 72
     7
 73
     5
  0
VERTEX
  5
177E
  8
0
 10
0.0
 20
0.0
 30
0.0
 70
   128
 71
     5
 72
     9
 73
     8
  0
VERTEX
  5
177F
  8
0
 10
0.0
 20
0.0
 30
0.0
 70
   128
 71
    10
 72
    11
 73
     9
  0
VERTEX
  5
1780
  8
0
 10
0.0
 20
0.0
 30
0.0
 70
   128
 71
    12
 72
    13
 73
    14
  0
VERTEX
  5
1781
  8
0
 10
0.0
 20
0.0
 30
0.0
 70
   128
 71
    14
 72
    10
 73
     9
  0
VERTEX
  5
1782
  8
0
 10
0.0
 20
0.0
 30
0.0
 70
   128
 71
    14
 72
     9
 73
     5
  0
VERTEX
  5
1783
  8
0
 10
0.0
 20
0.0
 30
0.0
 70
   128
 71
    14
 72
     5
 73
    12
  0
VERTEX
  5
1784
  8
0
 10
0.0
 20
0.0
 30
0.0
 70
   128
 71
     4
 72
    15
 73
    16
  0
VERTEX
  5
1785
  8
0
 10
0.0
 20
0.0
 30
0.0
 70
   128
 71
    16
 72
    17
 73
     5
  0
VERTEX
  5
1786
  8
0
 10
0.0
 20
0.0
 30
0.0
 70
   128
 71
    16
 72
     5
 73
     4
  0
VERTEX
  5
1787
  8
0
 10
0.0
 20
0.0
 30
0.0
 70
   128
 71
    17
 72
    12
 73
     5
  0
VERTEX
  5
1788
  8
0
 10
0.0
 20
0.0
 30
0.0
 70
   128
 71
     3
 72
    18
 73
     4
  0
VERTEX
  5
1789
  8
0
 10
0.0
 20
0.0
 30
0.0
 70
   128
 71
    15
 72
     4
 73
    18
  0
VERTEX
  5
178A
  8
0
 10
0.0
 20
0.0
 30
0.0
 70
   128
 71
    15
 72
    18
 73
    19
  0
VERTEX
  5
178B
  8
0
 10
0.0
 20
0.0
 30
0.0
 70
   128
 71
    13
 72
    12
 73
    17
  0
VERTEX
  5
178C
  8
0
 10
0.0
 20
0.0
 30
0.0
 70
   128
 71
    13
 72
    17
 73
    20
  0
SEQEND
  5
18B5
  8
0
  0
POLYLINE
  5
178D
  8
0
 66
     1
 10
0.0
 20
0.0
 30
0.0
 70
    64
 71
    12
 72
    10
  0
VERTEX
  5
178E
  8
0
 10
262.0
 20
-90.00000000000028
 30
27.50000000000003
 70
   192
  0
VERTEX
  5
178F
  8
0
 10
262.0
 20
-76.07417109108872
 30
27.50000000000003
 70
   192
  0
VERTEX
  5
1790
  8
0
 10
277.9099025766973
 20
-76.0741710910887
 30
20.90990257669736
 70
   192
  0
VERTEX
  5
1791
  8
0
 10
273.25
 20
-90.00000000000028
 30
24.48557158514989
 70
   192
  0
VERTEX
  5
1792
  8
0
 10
284.4999999999999
 20
-76.0741710910887
 30
5.000000000000061
 70
   192
  0
VERTEX
  5
1793
  8
0
 10
284.4999999999999
 20
-90.00000000000028
 30
5.00000000000006
 70
   192
  0
VERTEX
  5
1794
  8
0
 10
281.4855715851498
 20
-90.00000000000028
 30
16.25000000000005
 70
   192
  0
VERTEX
  5
1795
  8
0
 10
277.9099025766973
 20
-76.0741710910887
 30
-10.90990257669723
 70
   192
  0
VERTEX
  5
1796
  8
0
 10
281.4855715851498
 20
-90.00000000000028
 30
-6.249999999999929
 70
   192
  0
VERTEX
  5
1797
  8
0
 10
262.0
 20
-76.07417109108872
 30
-17.4999999999999
 70
   192
  0
VERTEX
  5
1798
  8
0
 10
262.0
 20
-90.00000000000028
 30
-17.4999999999999
 70
   192
  0
VERTEX
  5
1799
  8
0
 10
273.25
 20
-90.00000000000028
 30
-14.48557158514978
 70
   192
  0
VERTEX
  5
179A
  8
0
 10
0.0
 20
0.0
 30
0.0
 70
   128
 71
     1
 72
     2
 73
     3
  0
VERTEX
  5
179B
  8
0
 10
0.0
 20
0.0
 30
0.0
 70
   128
 71
     4
 72
     1
 73
     3
  0
VERTEX
  5
179C
  8
0
 10
0.0
 20
0.0
 30
0.0
 70
   128
 71
     5
 72
     6
 73
     7
  0
VERTEX
  5
179D
  8
0
 10
0.0
 20
0.0
 30
0.0
 70
   128
 71
     3
 72
     5
 73
     7
  0
VERTEX
  5
179E
  8
0
 10
0.0
 20
0.0
 30
0.0
 70
   128
 71
     6
 72
     5
 73
     8
  0
VERTEX
  5
179F
  8
0
 10
0.0
 20
0.0
 30
0.0
 70
   128
 71
     9
 72
     6
 73
     8
  0
VERTEX
  5
17A0
  8
0
 10
0.0
 20
0.0
 30
0.0
 70
   128
 71
    10
 72
    11
 73
    12
  0
VERTEX
  5
17A1
  8
0
 10
0.0
 20
0.0
 30
0.0
 70
   128
 71
     8
 72
    10
 73
    12
  0
VERTEX
  5
17A2
  8
0
 10
0.0
 20
0.0
 30
0.0
 70
   128
 71
     3
 72
     7
 73
     4
  0
VERTEX
  5
17A3
  8
0
 10
0.0
 20
0.0
 30
0.0
 70
   128
 71
     8
 72
    12
 73
     9
  0
SEQEND
  5
18B6
  8
0
  0
POLYLINE
  5
17A4
  8
0
 66
     1
 10
0.0
 20
0.0
 30
0.0
 70
    64
 71
    12
 72
    10
  0
VERTEX
  5
17A5
  8
0
 10
262.0
 20
-76.0741710910887
 30
27.50000000000003
 70
   192
  0
VERTEX
  5
17A6
  8
0
 10
262.0
 20
-69.07417109108872
 30
37.6204195601883
 70
   192
  0
VERTEX
  5
17A7
  8
0
 10
278.3102097800941
 20
-69.07417109108872
 30
33.25011202122987
 70
   192
  0
VERTEX
  5
17A8
  8
0
 10
277.9099025766973
 20
-76.0741710910887
 30
20.90990257669736
 70
   192
  0
VERTEX
  5
17A9
  8
0
 10
294.6204195601882
 20
-69.07417109108872
 30
5.000000000000058
 70
   192
  0
VERTEX
  5
17AA
  8
0
 10
284.4999999999999
 20
-76.0741710910887
 30
5.000000000000061
 70
   192
  0
VERTEX
  5
17AB
  8
0
 10
290.2501120212298
 20
-69.07417109108872
 30
21.31020978009419
 70
   192
  0
VERTEX
  5
17AC
  8
0
 10
290.2501120212298
 20
-69.07417109108872
 30
-11.31020978009407
 70
   192
  0
VERTEX
  5
17AD
  8
0
 10
277.9099025766973
 20
-76.0741710910887
 30
-10.90990257669723
 70
   192
  0
VERTEX
  5
17AE
  8
0
 10
262.0
 20
-69.07417109108872
 30
-27.62041956018818
 70
   192
  0
VERTEX
  5
17AF
  8
0
 10
262.0
 20
-76.0741710910887
 30
-17.4999999999999
 70
   192
  0
VERTEX
  5
17B0
  8
0
 10
278.3102097800941
 20
-69.07417109108872
 30
-23.25011202122976
 70
   192
  0
VERTEX
  5
17B1
  8
0
 10
0.0
 20
0.0
 30
0.0
 70
   128
 71
     1
 72
     2
 73
     3
  0
VERTEX
  5
17B2
  8
0
 10
0.0
 20
0.0
 30
0.0
 70
   128
 71
     4
 72
     1
 73
     3
  0
VERTEX
  5
17B3
  8
0
 10
0.0
 20
0.0
 30
0.0
 70
   128
 71
     5
 72
     6
 73
     4
  0
VERTEX
  5
17B4
  8
0
 10
0.0
 20
0.0
 30
0.0
 70
   128
 71
     7
 72
     5
 73
     4
  0
VERTEX
  5
17B5
  8
0
 10
0.0
 20
0.0
 30
0.0
 70
   128
 71
     6
 72
     5
 73
     8
  0
VERTEX
  5
17B6
  8
0
 10
0.0
 20
0.0
 30
0.0
 70
   128
 71
     9
 72
     6
 73
     8
  0
VERTEX
  5
17B7
  8
0
 10
0.0
 20
0.0
 30
0.0
 70
   128
 71
    10
 72
    11
 73
     9
  0
VERTEX
  5
17B8
  8
0
 10
0.0
 20
0.0
 30
0.0
 70
   128
 71
    12
 72
    10
 73
     9
  0
VERTEX
  5
17B9
  8
0
 10
0.0
 20
0.0
 30
0.0
 70
   128
 71
     7
 72
     4
 73
     3
  0
VERTEX
  5
17BA
  8
0
 10
0.0
 20
0.0
 30
0.0
 70
   128
 71
    12
 72
     9
 73
     8
  0
SEQEND
  5
18B7
  8
0
  0
POLYLINE
  5
17BB
  8
0
 66
     1
 10
0.0
 20
0.0
 30
0.0
 70
    64
 71
    21
 72
    22
  0
VERTEX
  5
17BC
  8
0
 10
262.0
 20
-41.29654104114397
 30
-105.4152957353613
 70
   192
  0
VERTEX
  5
17BD
  8
0
 10
262.0
 20
-69.07417109108872
 30
-27.62041956018818
 70
   192
  0
VERTEX
  5
17BE
  8
0
 10
278.3102097800941
 20
-69.07417109108872
 30
-23.25011202122976
 70
   192
  0
VERTEX
  5
17BF
  8
0
 10
290.2501120212298
 20
-69.07417109108872
 30
-11.31020978009407
 70
   192
  0
VERTEX
  5
17C0
  8
0
 10
294.6204195601882
 20
-69.07417109108872
 30
5.000000000000058
 70
   192
  0
VERTEX
  5
17C1
  8
0
 10
357.6527056808667
 20
-49.28521660765847
 30
5.000000000000064
 70
   192
  0
VERTEX
  5
17C2
  8
0
 10
262.0
 20
41.00000000000004
 30
-185.0000000000001
 70
   192
  0
VERTEX
  5
17C3
  8
0
 10
167.0
 20
-15.27199598670114
 30
-105.4152957353613
 70
   192
  0
VERTEX
  5
17C4
  8
0
 10
166.3472943191333
 20
-49.28521660765847
 30
5.000000000000052
 70
   192
  0
VERTEX
  5
17C5
  8
0
 10
229.3795804398119
 20
-69.07417109108869
 30
5.00000000000006
 70
   192
  0
VERTEX
  5
17C6
  8
0
 10
233.7498879787702
 20
-69.07417109108872
 30
-11.31020978009406
 70
   192
  0
VERTEX
  5
17C7
  8
0
 10
245.6897902199059
 20
-69.07417109108872
 30
-23.25011202122976
 70
   192
  0
VERTEX
  5
17C8
  8
0
 10
97.45517328095659
 20
41.00000000000004
 30
-90.00000000000001
 70
   192
  0
VERTEX
  5
17C9
  8
0
 10
72.00000000000003
 20
41.0
 30
5.00000000000004
 70
   192
  0
VERTEX
  5
17CA
  8
0
 10
112.209405668537
 20
-11.42018226722777
 30
5.000000000000045
 70
   192
  0
VERTEX
  5
17CB
  8
0
 10
357.0
 20
-15.27199598670114
 30
-105.4152957353613
 70
   192
  0
VERTEX
  5
17CC
  8
0
 10
411.790594331463
 20
-11.42018226722777
 30
5.000000000000064
 70
   192
  0
VERTEX
  5
17CD
  8
0
 10
357.0000000000001
 20
41.00000000000004
 30
-159.5448267190434
 70
   192
  0
VERTEX
  5
17CE
  8
0
 10
426.5448267190434
 20
41.00000000000004
 30
-89.99999999999996
 70
   192
  0
VERTEX
  5
17CF
  8
0
 10
452.0
 20
41.0
 30
5.000000000000064
 70
   192
  0
VERTEX
  5
17D0
  8
0
 10
166.9999999999999
 20
41.00000000000004
 30
-159.5448267190434
 70
   192
  0
VERTEX
  5
17D1
  8
0
 10
0.0
 20
0.0
 30
0.0
 70
   128
 71
     1
 72
     2
 73
     3
  0
VERTEX
  5
17D2
  8
0
 10
0.0
 20
0.0
 30
0.0
 70
   128
 71
     3
 72
     4
 73
     1
  0
VERTEX
  5
17D3
  8
0
 10
0.0
 20
0.0
 30
0.0
 70
   128
 71
     4
 72
     5
 73
     6
  0
VERTEX
  5
17D4
  8
0
 10
0.0
 20
0.0
 30
0.0
 70
   128
 71
     1
 72
     7
 73
     8
  0
VERTEX
  5
17D5
  8
0
 10
0.0
 20
0.0
 30
0.0
 70
   128
 71
     9
 72
    10
 73
    11
  0
VERTEX
  5
17D6
  8
0
 10
0.0
 20
0.0
 30
0.0
 70
   128
 71
     1
 72
     8
 73
     9
  0
VERTEX
  5
17D7
  8
0
 10
0.0
 20
0.0
 30
0.0
 70
   128
 71
    12
 72
     1
 73
     9
  0
VERTEX
  5
17D8
  8
0
 10
0.0
 20
0.0
 30
0.0
 70
   128
 71
    11
 72
    12
 73
     9
  0
VERTEX
  5
17D9
  8
0
 10
0.0
 20
0.0
 30
0.0
 70
   128
 71
    12
 72
     2
 73
     1
  0
VERTEX
  5
17DA
  8
0
 10
0.0
 20
0.0
 30
0.0
 70
   128
 71
    13
 72
    14
 73
    15
  0
VERTEX
  5
17DB
  8
0
 10
0.0
 20
0.0
 30
0.0
 70
   128
 71
     9
 72
     8
 73
    15
  0
VERTEX
  5
17DC
  8
0
 10
0.0
 20
0.0
 30
0.0
 70
   128
 71
     1
 72
     4
 73
     6
  0
VERTEX
  5
17DD
  8
0
 10
0.0
 20
0.0
 30
0.0
 70
   128
 71
    16
 72
     1
 73
     6
  0
VERTEX
  5
17DE
  8
0
 10
0.0
 20
0.0
 30
0.0
 70
   128
 71
    17
 72
    16
 73
     6
  0
VERTEX
  5
17DF
  8
0
 10
0.0
 20
0.0
 30
0.0
 70
   128
 71
     7
 72
     1
 73
    16
  0
VERTEX
  5
17E0
  8
0
 10
0.0
 20
0.0
 30
0.0
 70
   128
 71
    18
 72
     7
 73
    16
  0
VERTEX
  5
17E1
  8
0
 10
0.0
 20
0.0
 30
0.0
 70
   128
 71
    18
 72
    16
 73
    17
  0
VERTEX
  5
17E2
  8
0
 10
0.0
 20
0.0
 30
0.0
 70
   128
 71
    19
 72
    18
 73
    17
  0
VERTEX
  5
17E3
  8
0
 10
0.0
 20
0.0
 30
0.0
 70
   128
 71
    20
 72
    19
 73
    17
  0
VERTEX
  5
17E4
  8
0
 10
0.0
 20
0.0
 30
0.0
 70
   128
 71
    13
 72
    15
 73
     8
  0
VERTEX
  5
17E5
  8
0
 10
0.0
 20
0.0
 30
0.0
 70
   128
 71
    21
 72
    13
 73
     8
  0
VERTEX
  5
17E6
  8
0
 10
0.0
 20
0.0
 30
0.0
 70
   128
 71
     8
 72
     7
 73
    21
  0
SEQEND
  5
18B8
  8
0
  0
POLYLINE
  5
17E7
  8
0
 66
     1
 10
0.0
 20
0.0
 30
0.0
 70
    64
 71
     6
 72
     4
  0
VERTEX
  5
17E8
  8
0
 10
380.0379165601594
 20
-32.51424827458015
 30
-96.48698468990978
 70
   192
  0
VERTEX
  5
17E9
  8
0
 10
378.8067351197829
 20
-12.56910894048076
 30
-126.4397426926409
 70
   192
  0
VERTEX
  5
17EA
  8
0
 10
377.2792154082305
 20
12.17671038666745
 30
-152.5511044366192
 70
   192
  0
VERTEX
  5
17EB
  8
0
 10
375.5000000000001
 20
41.00000000000009
 30
-174.057951512911
 70
   192
  0
VERTEX
  5
17EC
  8
0
 10
375.5000000000001
 20
41.00000000000003
 30
-215.0
 70
   192
  0
VERTEX
  5
17ED
  8
0
 10
380.0379165601593
 20
-32.5142482745802
 30
-215.0
 70
   192
  0
VERTEX
  5
17EE
  8
0
 10
0.0
 20
0.0
 30
0.0
 70
   128
 71
     6
 72
     1
 73
    -2
  0
VERTEX
  5
17EF
  8
0
 10
0.0
 20
0.0
 30
0.0
 70
   128
 71
     2
 72
    -3
 73
    -6
  0
VERTEX
  5
17F0
  8
0
 10
0.0
 20
0.0
 30
0.0
 70
   128
 71
     4
 72
     5
 73
    -6
  0
VERTEX
  5
17F1
  8
0
 10
0.0
 20
0.0
 30
0.0
 70
   128
 71
     3
 72
    -4
 73
    -6
  0
SEQEND
  5
18B9
  8
0
  0
POLYLINE
  5
17F2
  8
0
 66
     1
 10
0.0
 20
0.0
 30
0.0
 70
    64
 71
     9
 72
     7
  0
VERTEX
  5
17F3
  8
0
 10
393.4642303117093
 20
-37.83469066073515
 30
-215.0
 70
   192
  0
VERTEX
  5
17F4
  8
0
 10
395.9620834398408
 20
-32.5142482745802
 30
-215.0
 70
   192
  0
VERTEX
  5
17F5
  8
0
 10
395.9620834398408
 20
-32.5142482745802
 30
-74.28882650014589
 70
   192
  0
VERTEX
  5
17F6
  8
0
 10
382.8792252257655
 20
-38.13948704440671
 30
-82.12504295478928
 70
   192
  0
VERTEX
  5
17F7
  8
0
 10
382.5357696882908
 20
-37.83469066073514
 30
-215.0
 70
   192
  0
VERTEX
  5
17F8
  8
0
 10
388.0000000000001
 20
-39.99999999999996
 30
-215.0
 70
   192
  0
VERTEX
  5
17F9
  8
0
 10
380.0379165601594
 20
-32.51424827458019
 30
-96.4869846899097
 70
   192
  0
VERTEX
  5
17FA
  8
0
 10
380.0379165601593
 20
-32.5142482745802
 30
-215.0
 70
   192
  0
VERTEX
  5
17FB
  8
0
 10
389.3851404413316
 20
-39.87893058139063
 30
-68.04147873199003
 70
   192
  0
VERTEX
  5
17FC
  8
0
 10
0.0
 20
0.0
 30
0.0
 70
   128
 71
     1
 72
     2
 73
     3
  0
VERTEX
  5
17FD
  8
0
 10
0.0
 20
0.0
 30
0.0
 70
   128
 71
     4
 72
     5
 73
     6
  0
VERTEX
  5
17FE
  8
0
 10
0.0
 20
0.0
 30
0.0
 70
   128
 71
     7
 72
     8
 73
     5
  0
VERTEX
  5
17FF
  8
0
 10
0.0
 20
0.0
 30
0.0
 70
   128
 71
     1
 72
     3
 73
     9
  0
VERTEX
  5
1800
  8
0
 10
0.0
 20
0.0
 30
0.0
 70
   128
 71
     1
 72
     9
 73
     4
  0
VERTEX
  5
1801
  8
0
 10
0.0
 20
0.0
 30
0.0
 70
   128
 71
     1
 72
     4
 73
     6
  0
VERTEX
  5
1802
  8
0
 10
0.0
 20
0.0
 30
0.0
 70
   128
 71
     4
 72
     7
 73
     5
  0
SEQEND
  5
18BA
  8
0
  0
POLYLINE
  5
1803
  8
0
 66
     1
 10
0.0
 20
0.0
 30
0.0
 70
    64
 71
     6
 72
     4
  0
VERTEX
  5
1804
  8
0
 10
400.5000000000001
 20
41.0
 30
-155.5046728291733
 70
   192
  0
VERTEX
  5
1805
  8
0
 10
398.6638390363717
 20
11.2541923892198
 30
-133.5226546937824
 70
   192
  0
VERTEX
  5
1806
  8
0
 10
397.1311001955782
 20
-13.57617683163534
 30
-106.0909731046326
 70
   192
  0
VERTEX
  5
1807
  8
0
 10
395.9620834398409
 20
-32.5142482745803
 30
-74.28882650014575
 70
   192
  0
VERTEX
  5
1808
  8
0
 10
395.9620834398408
 20
-32.5142482745802
 30
-215.0
 70
   192
  0
VERTEX
  5
1809
  8
0
 10
400.5000000000001
 20
41.00000000000004
 30
-215.0
 70
   192
  0
VERTEX
  5
180A
  8
0
 10
0.0
 20
0.0
 30
0.0
 70
   128
 71
     6
 72
     1
 73
    -2
  0
VERTEX
  5
180B
  8
0
 10
0.0
 20
0.0
 30
0.0
 70
   128
 71
     5
 72
    -6
 73
    -2
  0
VERTEX
  5
180C
  8
0
 10
0.0
 20
0.0
 30
0.0
 70
   128
 71
     2
 72
    -3
 73
    -5
  0
VERTEX
  5
180D
  8
0
 10
0.0
 20
0.0
 30
0.0
 70
   128
 71
     3
 72
     4
 73
    -5
  0
SEQEND
  5
18BB
  8
0
  0
POLYLINE
  5
180E
  8
0
 66
     1
 10
0.0
 20
0.0
 30
0.0
 70
    64
 71
     6
 72
     4
  0
VERTEX
  5
180F
  8
0
 10
127.0379165601593
 20
-32.51424827458018
 30
-72.57444064181595
 70
   192
  0
VERTEX
  5
1810
  8
0
 10
125.8760833819456
 20
-13.69255078751797
 30
-104.70392204915
 70
   192
  0
VERTEX
  5
1811
  8
0
 10
124.3429263738703
 20
11.1445927433022
 30
-132.4289190545735
 70
   192
  0
VERTEX
  5
1812
  8
0
 10
122.5000000000001
 20
40.99999999999997
 30
-154.6363053944811
 70
   192
  0
VERTEX
  5
1813
  8
0
 10
122.5000000000001
 20
41.00000000000006
 30
-215.0
 70
   192
  0
VERTEX
  5
1814
  8
0
 10
127.0379165601593
 20
-32.51424827458017
 30
-215.0
 70
   192
  0
VERTEX
  5
1815
  8
0
 10
0.0
 20
0.0
 30
0.0
 70
   128
 71
     6
 72
     1
 73
    -2
  0
VERTEX
  5
1816
  8
0
 10
0.0
 20
0.0
 30
0.0
 70
   128
 71
     2
 72
    -3
 73
    -6
  0
VERTEX
  5
1817
  8
0
 10
0.0
 20
0.0
 30
0.0
 70
   128
 71
     4
 72
     5
 73
    -6
  0
VERTEX
  5
1818
  8
0
 10
0.0
 20
0.0
 30
0.0
 70
   128
 71
     3
 72
    -4
 73
    -6
  0
SEQEND
  5
18BC
  8
0
  0
POLYLINE
  5
1819
  8
0
 66
     1
 10
0.0
 20
0.0
 30
0.0
 70
    64
 71
     6
 72
     4
  0
VERTEX
  5
181A
  8
0
 10
147.5
 20
41.0
 30
-173.4201502073126
 70
   192
  0
VERTEX
  5
181B
  8
0
 10
145.717248346479
 20
12.1194232129601
 30
-151.763311033243
 70
   192
  0
VERTEX
  5
181C
  8
0
 10
144.1895416034166
 20
-12.62942602465148
 30
-125.4679659025373
 70
   192
  0
VERTEX
  5
181D
  8
0
 10
142.9620834398407
 20
-32.51424827458021
 30
-95.31217387899457
 70
   192
  0
VERTEX
  5
181E
  8
0
 10
142.9620834398407
 20
-32.51424827458018
 30
-215.0
 70
   192
  0
VERTEX
  5
181F
  8
0
 10
147.5000000000001
 20
41.00000000000003
 30
-215.0
 70
   192
  0
VERTEX
  5
1820
  8
0
 10
0.0
 20
0.0
 30
0.0
 70
   128
 71
     6
 72
     1
 73
    -2
  0
VERTEX
  5
1821
  8
0
 10
0.0
 20
0.0
 30
0.0
 70
   128
 71
     5
 72
    -6
 73
    -2
  0
VERTEX
  5
1822
  8
0
 10
0.0
 20
0.0
 30
0.0
 70
   128
 71
     2
 72
    -3
 73
    -5
  0
VERTEX
  5
1823
  8
0
 10
0.0
 20
0.0
 30
0.0
 70
   128
 71
     3
 72
     4
 73
    -5
  0
SEQEND
  5
18BD
  8
0
  0
POLYLINE
  5
1824
  8
0
 66
     1
 10
0.0
 20
0.0
 30
0.0
 70
    64
 71
     9
 72
     7
  0
VERTEX
  5
1825
  8
0
 10
140.4642303117093
 20
-37.8346906607351
 30
-215.0
 70
   192
  0
VERTEX
  5
1826
  8
0
 10
142.9620834398407
 20
-32.51424827458018
 30
-215.0
 70
   192
  0
VERTEX
  5
1827
  8
0
 10
142.9620834398407
 20
-32.51424827458018
 30
-95.31217387899466
 70
   192
  0
VERTEX
  5
1828
  8
0
 10
127.0379165601593
 20
-32.51424827458016
 30
-72.57444064181581
 70
   192
  0
VERTEX
  5
1829
  8
0
 10
127.0379165601593
 20
-32.51424827458017
 30
-215.0
 70
   192
  0
VERTEX
  5
182A
  8
0
 10
129.5357696882908
 20
-37.83469066073509
 30
-215.0
 70
   192
  0
VERTEX
  5
182B
  8
0
 10
140.0986658378414
 20
-38.15832027001531
 30
-80.64886063816449
 70
   192
  0
VERTEX
  5
182C
  8
0
 10
135.0000000000001
 20
-39.9999999999999
 30
-215.0
 70
   192
  0
VERTEX
  5
182D
  8
0
 10
133.58816276295
 20
-39.87407596610242
 30
-66.23360902992468
 70
   192
  0
VERTEX
  5
182E
  8
0
 10
0.0
 20
0.0
 30
0.0
 70
   128
 71
     1
 72
     2
 73
     3
  0
VERTEX
  5
182F
  8
0
 10
0.0
 20
0.0
 30
0.0
 70
   128
 71
     4
 72
     5
 73
     6
  0
VERTEX
  5
1830
  8
0
 10
0.0
 20
0.0
 30
0.0
 70
   128
 71
     3
 72
     7
 73
     8
  0
VERTEX
  5
1831
  8
0
 10
0.0
 20
0.0
 30
0.0
 70
   128
 71
     3
 72
     8
 73
     1
  0
VERTEX
  5
1832
  8
0
 10
0.0
 20
0.0
 30
0.0
 70
   128
 71
     8
 72
     7
 73
     9
  0
VERTEX
  5
1833
  8
0
 10
0.0
 20
0.0
 30
0.0
 70
   128
 71
     8
 72
     9
 73
     4
  0
VERTEX
  5
1834
  8
0
 10
0.0
 20
0.0
 30
0.0
 70
   128
 71
     8
 72
     4
 73
     6
  0
SEQEND
  5
18BE
  8
0
  0
POLYLINE
  5
1835
  8
0
 66
     1
 10
0.0
 20
0.0
 30
0.0
 70
    64
 71
     8
 72
     6
  0
VERTEX
  5
1836
  8
0
 10
-500.0
 20
60.45049024320358
 30
-235.0
 70
   192
  0
VERTEX
  5
1837
  8
0
 10
-499.6806510477568
 20
58.72260419102719
 30
-220.1264871116705
 70
   192
  0
VERTEX
  5
1838
  8
0
 10
-499.6806510477568
 20
61.69730676869316
 30
-235.0
 70
   192
  0
VERTEX
  5
1839
  8
0
 10
-500.0
 20
57.49999999999998
 30
-220.2475487839819
 70
   192
  0
VERTEX
  5
183A
  8
0
 10
-498.7226041910271
 20
59.68065104775681
 30
-220.031621777918
 70
   192
  0
VERTEX
  5
183B
  8
0
 10
-498.7226041910271
 20
62.67432669217327
 30
-234.9999999999999
 70
   192
  0
VERTEX
  5
183C
  8
0
 10
-497.5
 20
59.99999999999998
 30
-220.0
 70
   192
  0
VERTEX
  5
183D
  8
0
 10
-497.5
 20
62.99999999999998
 30
-235.0
 70
   192
  0
VERTEX
  5
183E
  8
0
 10
0.0
 20
0.0
 30
0.0
 70
   128
 71
    -1
 72
     2
 73
     3
  0
VERTEX
  5
183F
  8
0
 10
0.0
 20
0.0
 30
0.0
 70
   128
 71
     1
 72
     4
 73
    -2
  0
VERTEX
  5
1840
  8
0
 10
0.0
 20
0.0
 30
0.0
 70
   128
 71
    -3
 72
     5
 73
     6
  0
VERTEX
  5
1841
  8
0
 10
0.0
 20
0.0
 30
0.0
 70
   128
 71
     3
 72
     2
 73
    -5
  0
VERTEX
  5
1842
  8
0
 10
0.0
 20
0.0
 30
0.0
 70
   128
 71
     6
 72
     5
 73
    -7
  0
VERTEX
  5
1843
  8
0
 10
0.0
 20
0.0
 30
0.0
 70
   128
 71
    -6
 72
     7
 73
     8
  0
SEQEND
  5
18BF
  8
0
  0
POLYLINE
  5
1844
  8
0
 66
     1
 10
0.0
 20
0.0
 30
0.0
 70
    64
 71
     8
 72
     6
  0
VERTEX
  5
1845
  8
0
 10
-499.6806510477568
 20
58.72260419102719
 30
-220.1264871116705
 70
   192
  0
VERTEX
  5
1846
  8
0
 10
-500.0
 20
57.49999999999997
 30
-220.2475487839819
 70
   192
  0
VERTEX
  5
1847
  8
0
 10
-500.0
 20
57.50000000000003
 30
235.0
 70
   192
  0
VERTEX
  5
1848
  8
0
 10
-498.7226041910271
 20
59.68065104775681
 30
-220.031621777918
 70
   192
  0
VERTEX
  5
1849
  8
0
 10
-499.6806510477568
 20
58.72260419102719
 30
234.6806510477568
 70
   192
  0
VERTEX
  5
184A
  8
0
 10
-498.7226041910272
 20
59.68065104775683
 30
233.7226041910272
 70
   192
  0
VERTEX
  5
184B
  8
0
 10
-497.5
 20
60.00000000000004
 30
232.5
 70
   192
  0
VERTEX
  5
184C
  8
0
 10
-497.5
 20
59.99999999999998
 30
-220.0
 70
   192
  0
VERTEX
  5
184D
  8
0
 10
0.0
 20
0.0
 30
0.0
 70
   128
 71
     1
 72
     2
 73
     3
  0
VERTEX
  5
184E
  8
0
 10
0.0
 20
0.0
 30
0.0
 70
   128
 71
     4
 72
     1
 73
     3
  0
VERTEX
  5
184F
  8
0
 10
0.0
 20
0.0
 30
0.0
 70
   128
 71
     3
 72
     5
 73
     6
  0
VERTEX
  5
1850
  8
0
 10
0.0
 20
0.0
 30
0.0
 70
   128
 71
     4
 72
     3
 73
     6
  0
VERTEX
  5
1851
  8
0
 10
0.0
 20
0.0
 30
0.0
 70
   128
 71
     4
 72
     6
 73
    -7
  0
VERTEX
  5
1852
  8
0
 10
0.0
 20
0.0
 30
0.0
 70
   128
 71
    -4
 72
     7
 73
     8
  0
SEQEND
  5
18C0
  8
0
  0
POLYLINE
  5
1853
  8
0
 66
     1
 10
0.0
 20
0.0
 30
0.0
 70
    64
 71
     8
 72
     6
  0
VERTEX
  5
1854
  8
0
 10
497.5
 20
60.00000000000004
 30
232.5
 70
   192
  0
VERTEX
  5
1855
  8
0
 10
-497.5
 20
60.00000000000004
 30
232.5
 70
   192
  0
VERTEX
  5
1856
  8
0
 10
-498.7226041910272
 20
59.68065104775683
 30
233.7226041910272
 70
   192
  0
VERTEX
  5
1857
  8
0
 10
498.7226041910271
 20
59.68065104775683
 30
233.7226041910272
 70
   192
  0
VERTEX
  5
1858
  8
0
 10
-499.6806510477568
 20
58.72260419102719
 30
234.6806510477568
 70
   192
  0
VERTEX
  5
1859
  8
0
 10
500.0
 20
57.50000000000004
 30
235.0
 70
   192
  0
VERTEX
  5
185A
  8
0
 10
499.6806510477568
 20
58.7226041910272
 30
234.6806510477568
 70
   192
  0
VERTEX
  5
185B
  8
0
 10
-500.0
 20
57.50000000000004
 30
235.0
 70
   192
  0
VERTEX
  5
185C
  8
0
 10
0.0
 20
0.0
 30
0.0
 70
   128
 71
     1
 72
     2
 73
    -3
  0
VERTEX
  5
185D
  8
0
 10
0.0
 20
0.0
 30
0.0
 70
   128
 71
     4
 72
    -1
 73
     3
  0
VERTEX
  5
185E
  8
0
 10
0.0
 20
0.0
 30
0.0
 70
   128
 71
     4
 72
     3
 73
     5
  0
VERTEX
  5
185F
  8
0
 10
0.0
 20
0.0
 30
0.0
 70
   128
 71
     6
 72
     7
 73
     4
  0
VERTEX
  5
1860
  8
0
 10
0.0
 20
0.0
 30
0.0
 70
   128
 71
     6
 72
     4
 73
     5
  0
VERTEX
  5
1861
  8
0
 10
0.0
 20
0.0
 30
0.0
 70
   128
 71
     5
 72
     8
 73
     6
  0
SEQEND
  5
18C1
  8
0
  0
POLYLINE
  5
1862
  8
0
 66
     1
 10
0.0
 20
0.0
 30
0.0
 70
    64
 71
     8
 72
     6
  0
VERTEX
  5
1863
  8
0
 10
500.0
 20
57.50000000000004
 30
235.0
 70
   192
  0
VERTEX
  5
1864
  8
0
 10
499.6806510477567
 20
58.72260419102713
 30
-220.12648711167
 70
   192
  0
VERTEX
  5
1865
  8
0
 10
499.6806510477568
 20
58.7226041910272
 30
234.6806510477568
 70
   192
  0
VERTEX
  5
1866
  8
0
 10
500.0
 20
57.49999999999997
 30
-220.247548783982
 70
   192
  0
VERTEX
  5
1867
  8
0
 10
498.7226041910272
 20
59.68065104775675
 30
-220.0316217779175
 70
   192
  0
VERTEX
  5
1868
  8
0
 10
498.7226041910271
 20
59.68065104775683
 30
233.7226041910272
 70
   192
  0
VERTEX
  5
1869
  8
0
 10
497.5000000000001
 20
59.99999999999998
 30
-220.0
 70
   192
  0
VERTEX
  5
186A
  8
0
 10
497.5000000000001
 20
60.00000000000004
 30
232.5
 70
   192
  0
VERTEX
  5
186B
  8
0
 10
0.0
 20
0.0
 30
0.0
 70
   128
 71
    -1
 72
     2
 73
     3
  0
VERTEX
  5
186C
  8
0
 10
0.0
 20
0.0
 30
0.0
 70
   128
 71
     1
 72
     4
 73
    -2
  0
VERTEX
  5
186D
  8
0
 10
0.0
 20
0.0
 30
0.0
 70
   128
 71
     3
 72
     2
 73
    -5
  0
VERTEX
  5
186E
  8
0
 10
0.0
 20
0.0
 30
0.0
 70
   128
 71
    -3
 72
     5
 73
     6
  0
VERTEX
  5
186F
  8
0
 10
0.0
 20
0.0
 30
0.0
 70
   128
 71
     6
 72
     5
 73
    -7
  0
VERTEX
  5
1870
  8
0
 10
0.0
 20
0.0
 30
0.0
 70
   128
 71
    -6
 72
     7
 73
     8
  0
SEQEND
  5
18C2
  8
0
  0
POLYLINE
  5
1871
  8
0
 66
     1
 10
0.0
 20
0.0
 30
0.0
 70
    64
 71
     8
 72
     6
  0
VERTEX
  5
1872
  8
0
 10
499.6806510477567
 20
58.72260419102713
 30
-220.12648711167
 70
   192
  0
VERTEX
  5
1873
  8
0
 10
500.0
 20
57.49999999999997
 30
-220.2475487839819
 70
   192
  0
VERTEX
  5
1874
  8
0
 10
500.0
 20
60.45049024320359
 30
-235.0
 70
   192
  0
VERTEX
  5
1875
  8
0
 10
498.7226041910272
 20
59.68065104775675
 30
-220.0316217779175
 70
   192
  0
VERTEX
  5
1876
  8
0
 10
499.6806510477567
 20
61.69730676869314
 30
-235.0
 70
   192
  0
VERTEX
  5
1877
  8
0
 10
497.5000000000001
 20
59.99999999999997
 30
-220.0
 70
   192
  0
VERTEX
  5
1878
  8
0
 10
498.7226041910272
 20
62.67432669217325
 30
-235.0
 70
   192
  0
VERTEX
  5
1879
  8
0
 10
497.5000000000001
 20
62.99999999999997
 30
-235.0
 70
   192
  0
VERTEX
  5
187A
  8
0
 10
0.0
 20
0.0
 30
0.0
 70
   128
 71
     1
 72
     2
 73
     3
  0
VERTEX
  5
187B
  8
0
 10
0.0
 20
0.0
 30
0.0
 70
   128
 71
     4
 72
     1
 73
     3
  0
VERTEX
  5
187C
  8
0
 10
0.0
 20
0.0
 30
0.0
 70
   128
 71
     4
 72
     3
 73
     5
  0
VERTEX
  5
187D
  8
0
 10
0.0
 20
0.0
 30
0.0
 70
   128
 71
     6
 72
     4
 73
     5
  0
VERTEX
  5
187E
  8
0
 10
0.0
 20
0.0
 30
0.0
 70
   128
 71
     6
 72
     5
 73
     7
  0
VERTEX
  5
187F
  8
0
 10
0.0
 20
0.0
 30
0.0
 70
   128
 71
     7
 72
     8
 73
     6
  0
SEQEND
  5
18C3
  8
0
  0
ENDBLK
  5
1881
  8
0
  0
ENDSEC
  0
SECTION
  2
ENTITIES
  0
INSERT
  5
A3E
  8
0
  2
*X1
 10
0.0
 20
0.0
 30
0.0
  0
ENDSEC
  0
EOF
